  0
SECTION
  2
HEADER
  9
$ACADVER
  1
AC1015
  9
$ACADMAINTVER
 70
     6
  9
$DWGCODEPAGE
  3
ANSI_1252
  9
$INSBASE
 10
0.0
 20
0.0
 30
0.0
  9
$EXTMIN
 10
-74.5094210066
 20
-1.9196383816
 30
0.0
  9
$EXTMAX
 10
555.6414971111
 20
226.2148413414
 30
0.0
  9
$LIMMIN
 10
0.0
 20
0.0
  9
$LIMMAX
 10
420.0
 20
297.0
  9
$ORTHOMODE
 70
     0
  9
$REGENMODE
 70
     1
  9
$FILLMODE
 70
     1
  9
$QTEXTMODE
 70
     0
  9
$MIRRTEXT
 70
     1
  9
$LTSCALE
 40
1.0
  9
$ATTMODE
 70
     1
  9
$TEXTSIZE
 40
3.5
  9
$TRACEWID
 40
1.0
  9
$TEXTSTYLE
  7
Standard
  9
$CLAYER
  8
0
  9
$CELTYPE
  6
ByLayer
  9
$CECOLOR
 62
   256
  9
$CELTSCALE
 40
1.0
  9
$DISPSILH
 70
     0
  9
$DIMSCALE
 40
1.0
  9
$DIMASZ
 40
3.302
  9
$DIMEXO
 40
1.27
  9
$DIMDLI
 40
3.75
  9
$DIMRND
 40
0.0
  9
$DIMDLE
 40
0.0
  9
$DIMEXE
 40
3.175
  9
$DIMTP
 40
0.0
  9
$DIMTM
 40
0.0
  9
$DIMTXT
 40
3.5
  9
$DIMCEN
 40
2.5
  9
$DIMTSZ
 40
0.0
  9
$DIMTOL
 70
     0
  9
$DIMLIM
 70
     0
  9
$DIMTIH
 70
     1
  9
$DIMTOH
 70
     1
  9
$DIMSE1
 70
     0
  9
$DIMSE2
 70
     0
  9
$DIMTAD
 70
     1
  9
$DIMZIN
 70
     0
  9
$DIMBLK
  1

  9
$DIMASO
 70
     1
  9
$DIMSHO
 70
     1
  9
$DIMPOST
  1

  9
$DIMAPOST
  1

  9
$DIMALT
 70
     0
  9
$DIMALTD
 70
     3
  9
$DIMALTF
 40
0.0393700787
  9
$DIMLFAC
 40
1.0
  9
$DIMTOFL
 70
     1
  9
$DIMTVP
 40
0.0
  9
$DIMTIX
 70
     0
  9
$DIMSOXD
 70
     0
  9
$DIMSAH
 70
     0
  9
$DIMBLK1
  1

  9
$DIMBLK2
  1

  9
$DIMSTYLE
  2
ISO-25
  9
$DIMCLRD
 70
     0
  9
$DIMCLRE
 70
     0
  9
$DIMCLRT
 70
     0
  9
$DIMTFAC
 40
1.0
  9
$DIMGAP
 40
1.524
  9
$DIMJUST
 70
     0
  9
$DIMSD1
 70
     0
  9
$DIMSD2
 70
     0
  9
$DIMTOLJ
 70
     0
  9
$DIMTZIN
 70
     0
  9
$DIMALTZ
 70
     0
  9
$DIMALTTZ
 70
     0
  9
$DIMUPT
 70
     0
  9
$DIMDEC
 70
     2
  9
$DIMTDEC
 70
     2
  9
$DIMALTU
 70
     2
  9
$DIMALTTD
 70
     3
  9
$DIMTXSTY
  7
Standard
  9
$DIMAUNIT
 70
     0
  9
$DIMADEC
 70
     2
  9
$DIMALTRND
 40
0.0
  9
$DIMAZIN
 70
     0
  9
$DIMDSEP
 70
    44
  9
$DIMATFIT
 70
     3
  9
$DIMFRAC
 70
     0
  9
$DIMLDRBLK
  1

  9
$DIMLUNIT
 70
     2
  9
$DIMLWD
 70
    -2
  9
$DIMLWE
 70
    -2
  9
$DIMTMOVE
 70
     0
  9
$LUNITS
 70
     2
  9
$LUPREC
 70
     2
  9
$SKETCHINC
 40
1.0
  9
$FILLETRAD
 40
10.0
  9
$AUNITS
 70
     0
  9
$AUPREC
 70
     2
  9
$MENU
  1
.
  9
$ELEVATION
 40
0.0
  9
$PELEVATION
 40
0.0
  9
$THICKNESS
 40
0.0
  9
$LIMCHECK
 70
     0
  9
$CHAMFERA
 40
0.0
  9
$CHAMFERB
 40
0.0
  9
$CHAMFERC
 40
0.0
  9
$CHAMFERD
 40
0.0
  9
$SKPOLY
 70
     0
  9
$TDCREATE
 40
2458234.629311366
  9
$TDUCREATE
 40
2458234.837644699
  9
$TDUPDATE
 40
2458234.629343646
  9
$TDUUPDATE
 40
2458234.837676979
  9
$TDINDWG
 40
0.0000000116
  9
$TDUSRTIMER
 40
0.0000000116
  9
$USRTIMER
 70
     1
  9
$ANGBASE
 50
0.0
  9
$ANGDIR
 70
     0
  9
$PDMODE
 70
     0
  9
$PDSIZE
 40
-1.0
  9
$PLINEWID
 40
0.0
  9
$SPLFRAME
 70
     0
  9
$SPLINETYPE
 70
     6
  9
$SPLINESEGS
 70
     8
  9
$HANDSEED
  5
C41
  9
$SURFTAB1
 70
     6
  9
$SURFTAB2
 70
     6
  9
$SURFTYPE
 70
     6
  9
$SURFU
 70
     6
  9
$SURFV
 70
     6
  9
$UCSBASE
  2

  9
$UCSNAME
  2

  9
$UCSORG
 10
0.0
 20
0.0
 30
0.0
  9
$UCSXDIR
 10
1.0
 20
0.0
 30
0.0
  9
$UCSYDIR
 10
0.0
 20
1.0
 30
0.0
  9
$UCSORTHOREF
  2

  9
$UCSORTHOVIEW
 70
     0
  9
$UCSORGTOP
 10
0.0
 20
0.0
 30
0.0
  9
$UCSORGBOTTOM
 10
0.0
 20
0.0
 30
0.0
  9
$UCSORGLEFT
 10
0.0
 20
0.0
 30
0.0
  9
$UCSORGRIGHT
 10
0.0
 20
0.0
 30
0.0
  9
$UCSORGFRONT
 10
0.0
 20
0.0
 30
0.0
  9
$UCSORGBACK
 10
0.0
 20
0.0
 30
0.0
  9
$PUCSBASE
  2

  9
$PUCSNAME
  2

  9
$PUCSORG
 10
0.0
 20
0.0
 30
0.0
  9
$PUCSXDIR
 10
1.0
 20
0.0
 30
0.0
  9
$PUCSYDIR
 10
0.0
 20
1.0
 30
0.0
  9
$PUCSORTHOREF
  2

  9
$PUCSORTHOVIEW
 70
     0
  9
$PUCSORGTOP
 10
0.0
 20
0.0
 30
0.0
  9
$PUCSORGBOTTOM
 10
0.0
 20
0.0
 30
0.0
  9
$PUCSORGLEFT
 10
0.0
 20
0.0
 30
0.0
  9
$PUCSORGRIGHT
 10
0.0
 20
0.0
 30
0.0
  9
$PUCSORGFRONT
 10
0.0
 20
0.0
 30
0.0
  9
$PUCSORGBACK
 10
0.0
 20
0.0
 30
0.0
  9
$USERI1
 70
     0
  9
$USERI2
 70
     0
  9
$USERI3
 70
     0
  9
$USERI4
 70
     0
  9
$USERI5
 70
     0
  9
$USERR1
 40
0.0
  9
$USERR2
 40
0.0
  9
$USERR3
 40
0.0
  9
$USERR4
 40
0.0
  9
$USERR5
 40
0.0
  9
$WORLDVIEW
 70
     1
  9
$SHADEDGE
 70
     3
  9
$SHADEDIF
 70
    70
  9
$TILEMODE
 70
     1
  9
$MAXACTVP
 70
    64
  9
$PINSBASE
 10
0.0
 20
0.0
 30
0.0
  9
$PLIMCHECK
 70
     0
  9
$PEXTMIN
 10
1.0000000000E+20
 20
1.0000000000E+20
 30
1.0000000000E+20
  9
$PEXTMAX
 10
-1.0000000000E+20
 20
-1.0000000000E+20
 30
-1.0000000000E+20
  9
$PLIMMIN
 10
0.0
 20
0.0
  9
$PLIMMAX
 10
420.0
 20
297.0
  9
$UNITMODE
 70
     0
  9
$VISRETAIN
 70
     1
  9
$PLINEGEN
 70
     0
  9
$PSLTSCALE
 70
     1
  9
$TREEDEPTH
 70
  3020
  9
$CMLSTYLE
  2
Standard
  9
$CMLJUST
 70
     0
  9
$CMLSCALE
 40
20.0
  9
$PROXYGRAPHICS
 70
     1
  9
$MEASUREMENT
 70
     1
  9
$CELWEIGHT
370
    -1
  9
$ENDCAPS
280
     0
  9
$JOINSTYLE
280
     0
  9
$LWDISPLAY
290
     1
  9
$INSUNITS
 70
     4
  9
$HYPERLINKBASE
  1

  9
$STYLESHEET
  1

  9
$XEDIT
290
     1
  9
$CEPSNTYPE
380
     0
  9
$PSTYLEMODE
290
     1
  9
$FINGERPRINTGUID
  2
{2B072E15-CB04-463E-AE13-9FAA407B4513}
  9
$VERSIONGUID
  2
{FAEB1C32-E019-11D5-929B-00C0DF256EC4}
  9
$EXTNAMES
290
     1
  9
$PSVPSCALE
 40
0.0
  9
$OLESTARTUP
290
     0
  0
ENDSEC
  0
SECTION
  2
CLASSES
  0
CLASS
  1
ACDBDICTIONARYWDFLT
  2
AcDbDictionaryWithDefault
  3
ObjectDBX Classes
 90
        0
280
     0
281
     0
  0
CLASS
  1
VISUALSTYLE
  2
AcDbVisualStyle
  3
ObjectDBX Classes
 90
     4095
280
     0
281
     0
  0
CLASS
  1
MATERIAL
  2
AcDbMaterial
  3
ObjectDBX Classes
 90
     1153
280
     0
281
     0
  0
CLASS
  1
SCALE
  2
AcDbScale
  3
ObjectDBX Classes
 90
     1153
280
     0
281
     0
  0
CLASS
  1
TABLESTYLE
  2
AcDbTableStyle
  3
ObjectDBX Classes
 90
     4095
280
     0
281
     0
  0
CLASS
  1
MLEADERSTYLE
  2
AcDbMLeaderStyle
  3
ACDB_MLEADERSTYLE_CLASS
 90
     4095
280
     0
281
     0
  0
CLASS
  1
SUN
  2
AcDbSun
  3
SCENEOE
 90
     1153
280
     0
281
     0
  0
CLASS
  1
ACDBPLACEHOLDER
  2
AcDbPlaceHolder
  3
ObjectDBX Classes
 90
        0
280
     0
281
     0
  0
CLASS
  1
LAYOUT
  2
AcDbLayout
  3
ObjectDBX Classes
 90
        0
280
     0
281
     0
  0
ENDSEC
  0
SECTION
  2
TABLES
  0
TABLE
  2
VPORT
  5
8
330
0
100
AcDbSymbolTable
 70
     1
  0
VPORT
  5
29
330
8
100
AcDbSymbolTableRecord
100
AcDbViewportTableRecord
  2
*Active
 70
     0
 10
0.0
 20
0.0
 11
1.0
 21
1.0
 12
240.5660380522
 22
112.1476014799
 13
0.0
 23
0.0
 14
10.0
 24
10.0
 15
10.0
 25
10.0
 16
0.0
 26
0.0
 36
1.0
 17
0.0
 27
0.0
 37
0.0
 40
232.6971693174
 41
2.7621906118
 42
50.0
 43
0.0
 44
0.0
 50
0.0
 51
0.0
 71
     0
 72
   100
 73
     1
 74
     3
 75
     0
 76
     0
 77
     0
 78
     0
281
     0
 65
     1
110
0.0
120
0.0
130
0.0
111
1.0
121
0.0
131
0.0
112
0.0
122
1.0
132
0.0
 79
     0
146
0.0
  0
ENDTAB
  0
TABLE
  2
LTYPE
  5
5
330
0
100
AcDbSymbolTable
 70
     6
  0
LTYPE
  5
14
330
5
100
AcDbSymbolTableRecord
100
AcDbLinetypeTableRecord
  2
ByBlock
 70
     0
  3

 72
    65
 73
     0
 40
0.0
  0
LTYPE
  5
15
330
5
100
AcDbSymbolTableRecord
100
AcDbLinetypeTableRecord
  2
ByLayer
 70
     0
  3

 72
    65
 73
     0
 40
0.0
  0
LTYPE
  5
16
330
5
100
AcDbSymbolTableRecord
100
AcDbLinetypeTableRecord
  2
Continuous
 70
     0
  3
Solid line
 72
    65
 73
     0
 40
0.0
  0
LTYPE
  5
6E
330
5
100
AcDbSymbolTableRecord
100
AcDbLinetypeTableRecord
  2
HIDDEN
 70
     0
  3
Hidden __ __ __ __ __ __ __ __ __ __ __ __ __ __
 72
    65
 73
     2
 40
1.905
 49
1.27
 74
     0
 49
-0.635
 74
     0
  0
LTYPE
  5
6F
330
5
100
AcDbSymbolTableRecord
100
AcDbLinetypeTableRecord
  2
PHANTOM
 70
     0
  3
Phantom ______  __  __  ______  __  __  ______
 72
    65
 73
     6
 40
12.7
 49
6.35
 74
     0
 49
-1.27
 74
     0
 49
1.27
 74
     0
 49
-1.27
 74
     0
 49
1.27
 74
     0
 49
-1.27
 74
     0
  0
LTYPE
  5
70
330
5
100
AcDbSymbolTableRecord
100
AcDbLinetypeTableRecord
  2
CENTER
 70
     0
  3
Center ____ _ ____ _ ____ _ ____ _ ____ _ ____
 72
    65
 73
     4
 40
10.16
 49
6.35
 74
     0
 49
-1.27
 74
     0
 49
1.27
 74
     0
 49
-1.27
 74
     0
  0
LTYPE
  5
71
330
5
100
AcDbSymbolTableRecord
100
AcDbLinetypeTableRecord
  2
CENTERX2
 70
     0
  3
Center (2x) ________  __  ________  __  _____
 72
    65
 73
     4
 40
20.32
 49
12.7
 74
     0
 49
-2.54
 74
     0
 49
2.54
 74
     0
 49
-2.54
 74
     0
  0
LTYPE
  5
72
330
5
100
AcDbSymbolTableRecord
100
AcDbLinetypeTableRecord
  2
DOT2
 70
     0
  3
Dot (.5x) ........................................
 72
    65
 73
     2
 40
0.635
 49
0.0
 74
     0
 49
-0.635
 74
     0
  0
ENDTAB
  0
TABLE
  2
LAYER
  5
2
330
0
100
AcDbSymbolTable
 70
     1
  0
LAYER
  5
10
330
2
100
AcDbSymbolTableRecord
100
AcDbLayerTableRecord
  2
0
 70
     0
 62
     7
  6
Continuous
370
    -3
390
F
  0
ENDTAB
  0
TABLE
  2
STYLE
  5
3
330
0
100
AcDbSymbolTable
 70
     1
  0
STYLE
  5
11
330
3
100
AcDbSymbolTableRecord
100
AcDbTextStyleTableRecord
  2
Standard
 70
     0
 40
0.0
 41
1.0
 50
0.0
 71
     0
 42
3.5
  3
txt
  4

  0
ENDTAB
  0
TABLE
  2
VIEW
  5
6
330
0
100
AcDbSymbolTable
 70
     0
  0
ENDTAB
  0
TABLE
  2
UCS
  5
7
330
0
100
AcDbSymbolTable
 70
     0
  0
ENDTAB
  0
TABLE
  2
APPID
  5
9
330
0
100
AcDbSymbolTable
 70
     1
  0
APPID
  5
12
330
9
100
AcDbSymbolTableRecord
100
AcDbRegAppTableRecord
  2
ACAD
 70
     0
  0
ENDTAB
  0
TABLE
  2
DIMSTYLE
  5
A
330
0
100
AcDbSymbolTable
 70
     1
100
AcDbDimStyleTable
  0
DIMSTYLE
105
27
330
A
100
AcDbSymbolTableRecord
100
AcDbDimStyleTableRecord
  2
ISO-25
 70
     0
 41
2.5
 42
0.625
 43
3.75
 44
1.25
 73
     0
 74
     0
 77
     1
 78
     8
140
2.5
141
2.5
143
0.0393700787
147
0.625
171
     3
172
     1
178
     0
271
     2
272
     2
274
     3
278
    44
283
     0
284
     8
340
11
  0
ENDTAB
  0
TABLE
  2
BLOCK_RECORD
  5
1
330
0
100
AcDbSymbolTable
 70
     1
  0
BLOCK_RECORD
  5
1F
330
1
100
AcDbSymbolTableRecord
100
AcDbBlockTableRecord
  2
*Model_Space
340
22
  0
BLOCK_RECORD
  5
1B
330
1
100
AcDbSymbolTableRecord
100
AcDbBlockTableRecord
  2
*Paper_Space
340
1E
  0
BLOCK_RECORD
  5
23
330
1
100
AcDbSymbolTableRecord
100
AcDbBlockTableRecord
  2
*Paper_Space0
340
26
  0
ENDTAB
  0
ENDSEC
  0
SECTION
  2
BLOCKS
  0
BLOCK
  5
20
330
1F
100
AcDbEntity
  8
0
100
AcDbBlockBegin
  2
*Model_Space
 70
     0
 10
0.0
 20
0.0
 30
0.0
  3
*Model_Space
  1

  0
ENDBLK
  5
21
330
1F
100
AcDbEntity
  8
0
100
AcDbBlockEnd
  0
BLOCK
  5
1C
330
1B
100
AcDbEntity
 67
     1
  8
0
100
AcDbBlockBegin
  2
*Paper_Space
 70
     0
 10
0.0
 20
0.0
 30
0.0
  3
*Paper_Space
  1

  0
ENDBLK
  5
1D
330
1B
100
AcDbEntity
 67
     1
  8
0
100
AcDbBlockEnd
  0
BLOCK
  5
24
330
23
100
AcDbEntity
  8
0
100
AcDbBlockBegin
  2
*Paper_Space0
 70
     0
 10
0.0
 20
0.0
 30
0.0
  3
*Paper_Space0
  1

  0
ENDBLK
  5
25
330
23
100
AcDbEntity
  8
0
100
AcDbBlockEnd
  0
ENDSEC
  0
SECTION
  2
ENTITIES
  0
CIRCLE
  5
73
330
1F
100
AcDbEntity
  8
0
  6
Continuous
 62
     7
370
    25
100
AcDbCircle
 10
-31.6378156376
 20
71.4328190685
 30
0.0
 40
2.100000000000033
  0
CIRCLE
  5
74
330
1F
100
AcDbEntity
  8
0
  6
Continuous
 62
     7
370
    25
100
AcDbCircle
 10
-67.0885404337
 20
87.2102575043
 30
0.0
 40
1.499999999999986
  0
CIRCLE
  5
75
330
1F
100
AcDbEntity
  8
0
  6
Continuous
 62
     7
370
    25
100
AcDbCircle
 10
-67.0885404337
 20
77.7102575043
 30
0.0
 40
1.499999999999986
  0
CIRCLE
  5
76
330
1F
100
AcDbEntity
  8
0
  6
Continuous
 62
     7
370
    25
100
AcDbCircle
 10
-5.1739620423
 20
158.9914961242
 30
0.0
 40
2.099999999999706
  0
CIRCLE
  5
77
330
1F
100
AcDbEntity
  8
0
  6
Continuous
 62
     7
370
    25
100
AcDbCircle
 10
41.9660379577
 20
158.9914961242
 30
0.0
 40
2.099999999999156
  0
CIRCLE
  5
78
330
1F
100
AcDbEntity
  8
0
  6
Continuous
 62
     7
370
    25
100
AcDbCircle
 10
41.9660379577
 20
111.8514961242
 30
0.0
 40
2.100000000000001
  0
CIRCLE
  5
79
330
1F
100
AcDbEntity
  8
0
  6
Continuous
 62
     7
370
    25
100
AcDbCircle
 10
-5.1739620423
 20
111.8514961242
 30
0.0
 40
2.100000000000076
  0
CIRCLE
  5
92
330
1F
100
AcDbEntity
  8
0
  6
Continuous
 62
     7
370
    25
100
AcDbCircle
 10
50.8320922184
 20
111.7502575056
 30
0.0
 40
2.532684443849675
  0
CIRCLE
  5
285
330
1F
100
AcDbEntity
  8
0
  6
Continuous
 62
     7
370
    25
100
AcDbCircle
 10
18.3960379577
 20
135.4214961242
 30
0.0
 40
20.62500061416512
  0
CIRCLE
  5
286
330
1F
100
AcDbEntity
  8
0
  6
Continuous
 62
     7
370
    25
100
AcDbCircle
 10
-18.0555607634
 20
36.6476062778
 30
0.0
 40
1.000000000000004
  0
CIRCLE
  5
287
330
1F
100
AcDbEntity
  8
0
  6
Continuous
 62
     7
370
    25
100
AcDbCircle
 10
-54.4055607634
 20
36.6476062778
 30
0.0
 40
0.9999999999999858
  0
CIRCLE
  5
2C7
330
1F
100
AcDbEntity
  8
0
  6
Continuous
 62
     7
370
    25
100
AcDbCircle
 10
226.2381464791
 20
158.9914961242
 30
0.0
 40
2.099999999999682
  0
CIRCLE
  5
2C8
330
1F
100
AcDbEntity
  8
0
  6
Continuous
 62
     7
370
    25
100
AcDbCircle
 10
179.0981464791
 20
158.9914961242
 30
0.0
 40
2.09999999999917
  0
CIRCLE
  5
2C9
330
1F
100
AcDbEntity
  8
0
  6
Continuous
 62
     7
370
    25
100
AcDbCircle
 10
179.0981464791
 20
111.8514961242
 30
0.0
 40
2.100000000000023
  0
CIRCLE
  5
2CA
330
1F
100
AcDbEntity
  8
0
  6
Continuous
 62
     7
370
    25
100
AcDbCircle
 10
226.2381464791
 20
111.8514961242
 30
0.0
 40
2.10000000000008
  0
CIRCLE
  5
2E3
330
1F
100
AcDbEntity
  8
0
  6
Continuous
 62
     7
370
    25
100
AcDbCircle
 10
170.2320922184
 20
111.7502575056
 30
0.0
 40
2.532684443849689
  0
CIRCLE
  5
4D5
330
1F
100
AcDbEntity
  8
0
  6
Continuous
 62
     7
370
    25
100
AcDbCircle
 10
202.6681464791
 20
135.4214961242
 30
0.0
 40
20.62500061416517
  0
CIRCLE
  5
4D6
330
1F
100
AcDbEntity
  8
0
  6
Continuous
 62
     7
370
    25
100
AcDbCircle
 10
260.1042184682
 20
147.511812491
 30
0.0
 40
1.0
  0
CIRCLE
  5
4D7
330
1F
100
AcDbEntity
  8
0
  6
Continuous
 62
     7
370
    25
100
AcDbCircle
 10
260.1042184682
 20
165.511812491
 30
0.0
 40
1.0
  0
CIRCLE
  5
518
330
1F
100
AcDbEntity
  8
0
  6
Continuous
 62
     7
370
    25
100
AcDbCircle
 10
324.9557716421
 20
57.2684778253
 30
0.0
 40
1.5
  0
CIRCLE
  5
519
330
1F
100
AcDbEntity
  8
0
  6
Continuous
 62
     7
370
    25
100
AcDbCircle
 10
324.9557058808
 20
66.5884778251
 30
0.0
 40
1.5
  0
CIRCLE
  5
51A
330
1F
100
AcDbEntity
  8
0
  6
Continuous
 62
     7
370
    25
100
AcDbCircle
 10
407.2812656186
 20
91.1499927827
 30
0.0
 40
2.500000000000057
  0
CIRCLE
  5
51B
330
1F
100
AcDbEntity
  8
0
  6
Continuous
 62
     7
370
    25
100
AcDbCircle
 10
343.5150156206
 20
91.149542288
 30
0.0
 40
2.500000001261014
  0
CIRCLE
  5
51C
330
1F
100
AcDbEntity
  8
0
  6
Continuous
 62
     7
370
    25
100
AcDbCircle
 10
318.5480511
 20
11.3093661144
 30
0.0
 40
3.599999999999909
  0
CIRCLE
  5
51D
330
1F
100
AcDbEntity
  8
0
  6
Continuous
 62
     7
370
    25
100
AcDbCircle
 10
432.28430116
 20
11.3065142534
 30
0.0
 40
3.599999999999909
  0
CIRCLE
  5
51E
330
1F
100
AcDbEntity
  8
0
  6
Continuous
 62
     7
370
    25
100
AcDbCircle
 10
432.2843011563
 20
91.1465217303
 30
0.0
 40
2.5
  0
CIRCLE
  5
51F
330
1F
100
AcDbEntity
  8
0
  6
Continuous
 62
     7
370
    25
100
AcDbCircle
 10
399.1565738119
 20
157.9302998252
 30
0.0
 40
2.100000000000136
  0
CIRCLE
  5
520
330
1F
100
AcDbEntity
  8
0
  6
Continuous
 62
     7
370
    25
100
AcDbCircle
 10
399.1565738119
 20
110.7902998252
 30
0.0
 40
2.10000000000008
  0
CIRCLE
  5
521
330
1F
100
AcDbEntity
  8
0
  6
Continuous
 62
     7
370
    25
100
AcDbCircle
 10
352.0165738119
 20
110.7902998252
 30
0.0
 40
2.10000000000008
  0
CIRCLE
  5
522
330
1F
100
AcDbEntity
  8
0
  6
Continuous
 62
     7
370
    25
100
AcDbCircle
 10
352.0165738119
 20
157.9302998252
 30
0.0
 40
2.10000000000008
  0
CIRCLE
  5
523
330
1F
100
AcDbEntity
  8
0
  6
Continuous
 62
     7
370
    25
100
AcDbCircle
 10
375.5865738119
 20
134.3602998252
 30
0.0
 40
20.62500061416517
  0
CIRCLE
  5
552
330
1F
100
AcDbEntity
  8
0
  6
Continuous
 62
     7
370
    25
100
AcDbCircle
 10
399.1565738119
 20
89.6702998252
 30
0.0
 40
1.0
  0
CIRCLE
  5
553
330
1F
100
AcDbEntity
  8
0
  6
Continuous
 62
     7
370
    25
100
AcDbCircle
 10
399.1565738119
 20
53.3202998252
 30
0.0
 40
1.0
  0
CIRCLE
  5
554
330
1F
100
AcDbEntity
  8
0
  6
Continuous
 62
     7
370
    25
100
AcDbCircle
 10
352.4565738119
 20
53.3202998252
 30
0.0
 40
1.000000000000057
  0
CIRCLE
  5
555
330
1F
100
AcDbEntity
  8
0
  6
Continuous
 62
     7
370
    25
100
AcDbCircle
 10
352.4565738119
 20
89.6702998252
 30
0.0
 40
1.000000000000057
  0
CIRCLE
  5
640
330
1F
100
AcDbEntity
  8
0
  6
Continuous
 62
     7
370
    25
100
AcDbCircle
 10
318.548051157
 20
91.1457190037
 30
0.0
 40
2.5
  0
CIRCLE
  5
650
330
1F
100
AcDbEntity
  8
0
  6
Continuous
 62
     7
370
    25
100
AcDbCircle
 10
545.5197857832
 20
107.2708966294
 30
0.0
 40
3.600000000000136
  0
CIRCLE
  5
651
330
1F
100
AcDbEntity
  8
0
  6
Continuous
 62
     7
370
    25
100
AcDbCircle
 10
535.5196315354
 20
107.2708966294
 30
0.0
 40
2.499999999999886
  0
CIRCLE
  5
652
330
1F
100
AcDbEntity
  8
0
  6
Continuous
 62
     7
370
    25
100
AcDbCircle
 10
515.2043250583
 20
107.2708966294
 30
0.0
 40
3.600000000000136
  0
CIRCLE
  5
653
330
1F
100
AcDbEntity
  8
0
  6
Continuous
 62
     7
370
    25
100
AcDbCircle
 10
494.8789097783
 20
107.2708966294
 30
0.0
 40
2.500000000000057
  0
CIRCLE
  5
654
330
1F
100
AcDbEntity
  8
0
  6
Continuous
 62
     7
370
    25
100
AcDbCircle
 10
484.8797865191
 20
107.2708966294
 30
0.0
 40
3.599999999999966
  0
CIRCLE
  5
655
330
1F
100
AcDbEntity
  8
0
  6
Continuous
 62
     7
370
    25
100
AcDbCircle
 10
545.530435098
 20
27.4705680661
 30
0.0
 40
2.499999999999886
  0
CIRCLE
  5
656
330
1F
100
AcDbEntity
  8
0
  6
Continuous
 62
     7
370
    25
100
AcDbCircle
 10
535.530435098
 20
27.4705680661
 30
0.0
 40
2.499999999999886
  0
CIRCLE
  5
657
330
1F
100
AcDbEntity
  8
0
  6
Continuous
 62
     7
370
    25
100
AcDbCircle
 10
515.2149761498
 20
27.4705680661
 30
0.0
 40
2.5
  0
CIRCLE
  5
658
330
1F
100
AcDbEntity
  8
0
  6
Continuous
 62
     7
370
    25
100
AcDbCircle
 10
494.891159895
 20
27.4705680661
 30
0.0
 40
2.5
  0
CIRCLE
  5
659
330
1F
100
AcDbEntity
  8
0
  6
Continuous
 62
     7
370
    25
100
AcDbCircle
 10
484.891159895
 20
27.4705680661
 30
0.0
 40
2.5
  0
CIRCLE
  5
65A
330
1F
100
AcDbEntity
  8
0
  6
Continuous
 62
     7
370
    25
100
AcDbCircle
 10
505.8841875342
 20
57.2219945232
 30
0.0
 40
2.499999999999943
  0
CIRCLE
  5
65B
330
1F
100
AcDbEntity
  8
0
  6
Continuous
 62
     7
370
    25
100
AcDbCircle
 10
505.8841875342
 20
77.2219945232
 30
0.0
 40
2.499999999999943
  0
CIRCLE
  5
65C
330
1F
100
AcDbEntity
  8
0
  6
Continuous
 62
     7
370
    25
100
AcDbCircle
 10
465.9641875342
 20
10.3388695211
 30
0.0
 40
2.5
  0
CIRCLE
  5
65D
330
1F
100
AcDbEntity
  8
0
  6
Continuous
 62
     7
370
    25
100
AcDbCircle
 10
465.9641875342
 20
124.1051195232
 30
0.0
 40
2.500000000000057
  0
CIRCLE
  5
65E
330
1F
100
AcDbEntity
  8
0
  6
Continuous
 62
     7
370
    25
100
AcDbCircle
 10
545.8041875342
 20
124.1051195232
 30
0.0
 40
3.600000000000136
  0
CIRCLE
  5
65F
330
1F
100
AcDbEntity
  8
0
  6
Continuous
 62
     7
370
    25
100
AcDbCircle
 10
545.8041875342
 20
10.3388695232
 30
0.0
 40
3.600000000000023
  0
CIRCLE
  5
660
330
1F
100
AcDbEntity
  8
0
  6
Continuous
 62
     7
370
    25
100
AcDbCircle
 10
465.9641875342
 20
35.3388695211
 30
0.0
 40
2.500000001261014
  0
CIRCLE
  5
661
330
1F
100
AcDbEntity
  8
0
  6
Continuous
 62
     7
370
    25
100
AcDbCircle
 10
548.6569905765
 20
72.2727384325
 30
0.0
 40
1.499999999971919
  0
CIRCLE
  5
662
330
1F
100
AcDbEntity
  8
0
  6
Continuous
 62
     7
370
    25
100
AcDbCircle
 10
548.6569905764
 20
62.6927385325
 30
0.0
 40
1.499999999999886
  0
CIRCLE
  5
663
330
1F
100
AcDbEntity
  8
0
  6
Continuous
 62
     7
370
    25
100
AcDbCircle
 10
465.9641875342
 20
99.1051195232
 30
0.0
 40
2.500000000000114
  0
LINE
  5
676
330
1F
100
AcDbEntity
  8
0
  6
Continuous
 62
     7
370
    25
100
AcDbLine
 10
24.9663996773
 20
187.4596071492
 30
0.0
 11
25.2161507194
 21
188.0625595531
 31
0.0
  0
LINE
  5
677
330
1F
100
AcDbEntity
  8
0
  6
Continuous
 62
     7
370
    25
100
AcDbLine
 10
25.2161507194
 20
188.0625595531
 30
0.0
 11
25.3013361357
 21
188.7096071783
 31
0.0
  0
LINE
  5
678
330
1F
100
AcDbEntity
  8
0
  6
Continuous
 62
     7
370
    25
100
AcDbLine
 10
25.3013361357
 20
188.7096071783
 30
0.0
 11
25.2161506808
 21
189.3566547985
 31
0.0
  0
LINE
  5
679
330
1F
100
AcDbEntity
  8
0
  6
Continuous
 62
     7
370
    25
100
AcDbLine
 10
25.2161506808
 20
189.3566547985
 30
0.0
 11
24.9663996028
 21
189.9596071875
 31
0.0
  0
LINE
  5
67A
330
1F
100
AcDbEntity
  8
0
  6
Continuous
 62
     7
370
    25
100
AcDbLine
 10
24.9663996028
 20
189.9596071875
 30
0.0
 11
24.5691030248
 21
190.4773741365
 31
0.0
  0
LINE
  5
67B
330
1F
100
AcDbEntity
  8
0
  6
Continuous
 62
     7
370
    25
100
AcDbLine
 10
24.5691030248
 20
190.4773741365
 30
0.0
 11
24.051336052
 21
190.8746706837
 31
0.0
  0
LINE
  5
67C
330
1F
100
AcDbEntity
  8
0
  6
Continuous
 62
     7
370
    25
100
AcDbLine
 10
24.051336052
 20
190.8746706837
 30
0.0
 11
23.4483836481
 21
191.1244217258
 31
0.0
  0
LINE
  5
67D
330
1F
100
AcDbEntity
  8
0
  6
Continuous
 62
     7
370
    25
100
AcDbLine
 10
23.4483836481
 20
191.1244217258
 30
0.0
 11
22.8013360229
 21
191.2096071421
 31
0.0
  0
LINE
  5
67E
330
1F
100
AcDbEntity
  8
0
  6
Continuous
 62
     7
370
    25
100
AcDbLine
 10
22.8013360229
 20
191.2096071421
 30
0.0
 11
22.1542884028
 21
191.1244216872
 31
0.0
  0
LINE
  5
67F
330
1F
100
AcDbEntity
  8
0
  6
Continuous
 62
     7
370
    25
100
AcDbLine
 10
22.1542884028
 20
191.1244216872
 30
0.0
 11
21.5513360138
 21
190.8746706092
 31
0.0
  0
LINE
  5
680
330
1F
100
AcDbEntity
  8
0
  6
Continuous
 62
     7
370
    25
100
AcDbLine
 10
21.5513360138
 20
190.8746706092
 30
0.0
 11
21.0335690647
 21
190.4773740312
 31
0.0
  0
LINE
  5
681
330
1F
100
AcDbEntity
  8
0
  6
Continuous
 62
     7
370
    25
100
AcDbLine
 10
21.0335690647
 20
190.4773740312
 30
0.0
 11
20.6362725176
 21
189.9596070584
 31
0.0
  0
LINE
  5
682
330
1F
100
AcDbEntity
  8
0
  6
Continuous
 62
     7
370
    25
100
AcDbLine
 10
20.6362725176
 20
189.9596070584
 30
0.0
 11
20.3865214755
 21
189.3566546545
 31
0.0
  0
LINE
  5
683
330
1F
100
AcDbEntity
  8
0
  6
Continuous
 62
     7
370
    25
100
AcDbLine
 10
20.3865214755
 20
189.3566546545
 30
0.0
 11
20.3013360592
 21
188.7096070293
 31
0.0
  0
LINE
  5
684
330
1F
100
AcDbEntity
  8
0
  6
Continuous
 62
     7
370
    25
100
AcDbLine
 10
20.3013360592
 20
188.7096070293
 30
0.0
 11
20.386521514
 21
188.0625594092
 31
0.0
  0
LINE
  5
685
330
1F
100
AcDbEntity
  8
0
  6
Continuous
 62
     7
370
    25
100
AcDbLine
 10
20.386521514
 20
188.0625594092
 30
0.0
 11
20.6362725921
 21
187.4596070202
 31
0.0
  0
LINE
  5
686
330
1F
100
AcDbEntity
  8
0
  6
Continuous
 62
     7
370
    25
100
AcDbLine
 10
20.6362725921
 20
187.4596070202
 30
0.0
 11
21.0335691701
 21
186.9418400711
 31
0.0
  0
LINE
  5
687
330
1F
100
AcDbEntity
  8
0
  6
Continuous
 62
     7
370
    25
100
AcDbLine
 10
21.0335691701
 20
186.9418400711
 30
0.0
 11
21.5513361428
 21
186.544543524
 31
0.0
  0
LINE
  5
688
330
1F
100
AcDbEntity
  8
0
  6
Continuous
 62
     7
370
    25
100
AcDbLine
 10
21.5513361428
 20
186.544543524
 30
0.0
 11
22.1542885467
 21
186.2947924819
 31
0.0
  0
LINE
  5
689
330
1F
100
AcDbEntity
  8
0
  6
Continuous
 62
     7
370
    25
100
AcDbLine
 10
22.1542885467
 20
186.2947924819
 30
0.0
 11
22.8013361719
 21
186.2096070656
 31
0.0
  0
LINE
  5
68A
330
1F
100
AcDbEntity
  8
0
  6
Continuous
 62
     7
370
    25
100
AcDbLine
 10
22.8013361719
 20
186.2096070656
 30
0.0
 11
23.448383792
 21
186.2947925204
 31
0.0
  0
LINE
  5
68B
330
1F
100
AcDbEntity
  8
0
  6
Continuous
 62
     7
370
    25
100
AcDbLine
 10
23.448383792
 20
186.2947925204
 30
0.0
 11
24.0513361811
 21
186.5445435985
 31
0.0
  0
LINE
  5
68C
330
1F
100
AcDbEntity
  8
0
  6
Continuous
 62
     7
370
    25
100
AcDbLine
 10
24.0513361811
 20
186.5445435985
 30
0.0
 11
24.5691031301
 21
186.9418401765
 31
0.0
  0
LINE
  5
68D
330
1F
100
AcDbEntity
  8
0
  6
Continuous
 62
     7
370
    25
100
AcDbLine
 10
24.5691031301
 20
186.9418401765
 30
0.0
 11
24.9663996773
 21
187.4596071492
 31
0.0
  0
LINE
  5
68E
330
1F
100
AcDbEntity
  8
0
  6
Continuous
 62
     7
370
    25
100
AcDbLine
 10
-56.0401407958
 20
162.9369311817
 30
0.0
 11
-55.6428442486
 21
163.4546981545
 31
0.0
  0
LINE
  5
68F
330
1F
100
AcDbEntity
  8
0
  6
Continuous
 62
     7
370
    25
100
AcDbLine
 10
-55.6428442486
 20
163.4546981545
 30
0.0
 11
-55.3930932065
 21
164.0576505584
 31
0.0
  0
LINE
  5
690
330
1F
100
AcDbEntity
  8
0
  6
Continuous
 62
     7
370
    25
100
AcDbLine
 10
-55.3930932065
 20
164.0576505584
 30
0.0
 11
-55.3079077902
 21
164.7046981836
 31
0.0
  0
LINE
  5
691
330
1F
100
AcDbEntity
  8
0
  6
Continuous
 62
     7
370
    25
100
AcDbLine
 10
-55.3079077902
 20
164.7046981836
 30
0.0
 11
-55.3930932451
 21
165.3517458037
 31
0.0
  0
LINE
  5
692
330
1F
100
AcDbEntity
  8
0
  6
Continuous
 62
     7
370
    25
100
AcDbLine
 10
-55.3930932451
 20
165.3517458037
 30
0.0
 11
-55.6428443231
 21
165.9546981927
 31
0.0
  0
LINE
  5
693
330
1F
100
AcDbEntity
  8
0
  6
Continuous
 62
     7
370
    25
100
AcDbLine
 10
-55.6428443231
 20
165.9546981927
 30
0.0
 11
-56.0401409011
 21
166.4724651418
 31
0.0
  0
LINE
  5
694
330
1F
100
AcDbEntity
  8
0
  6
Continuous
 62
     7
370
    25
100
AcDbLine
 10
-56.0401409011
 20
166.4724651418
 30
0.0
 11
-56.5579078739
 21
166.8697616889
 31
0.0
  0
LINE
  5
695
330
1F
100
AcDbEntity
  8
0
  6
Continuous
 62
     7
370
    25
100
AcDbLine
 10
-56.5579078739
 20
166.8697616889
 30
0.0
 11
-57.1608602778
 21
167.119512731
 31
0.0
  0
LINE
  5
696
330
1F
100
AcDbEntity
  8
0
  6
Continuous
 62
     7
370
    25
100
AcDbLine
 10
-57.1608602778
 20
167.119512731
 30
0.0
 11
-57.807907903
 21
167.2046981473
 31
0.0
  0
LINE
  5
697
330
1F
100
AcDbEntity
  8
0
  6
Continuous
 62
     7
370
    25
100
AcDbLine
 10
-57.807907903
 20
167.2046981473
 30
0.0
 11
-58.4549555231
 21
167.1195126925
 31
0.0
  0
LINE
  5
698
330
1F
100
AcDbEntity
  8
0
  6
Continuous
 62
     7
370
    25
100
AcDbLine
 10
-58.4549555231
 20
167.1195126925
 30
0.0
 11
-59.0579079121
 21
166.8697616144
 31
0.0
  0
LINE
  5
699
330
1F
100
AcDbEntity
  8
0
  6
Continuous
 62
     7
370
    25
100
AcDbLine
 10
-59.0579079121
 20
166.8697616144
 30
0.0
 11
-59.5756748612
 21
166.4724650364
 31
0.0
  0
LINE
  5
69A
330
1F
100
AcDbEntity
  8
0
  6
Continuous
 62
     7
370
    25
100
AcDbLine
 10
-59.5756748612
 20
166.4724650364
 30
0.0
 11
-59.9729714083
 21
165.9546980637
 31
0.0
  0
LINE
  5
69B
330
1F
100
AcDbEntity
  8
0
  6
Continuous
 62
     7
370
    25
100
AcDbLine
 10
-59.9729714083
 20
165.9546980637
 30
0.0
 11
-60.2227224504
 21
165.3517456598
 31
0.0
  0
LINE
  5
69C
330
1F
100
AcDbEntity
  8
0
  6
Continuous
 62
     7
370
    25
100
AcDbLine
 10
-60.2227224504
 20
165.3517456598
 30
0.0
 11
-60.3079078667
 21
164.7046980346
 31
0.0
  0
LINE
  5
69D
330
1F
100
AcDbEntity
  8
0
  6
Continuous
 62
     7
370
    25
100
AcDbLine
 10
-60.3079078667
 20
164.7046980346
 30
0.0
 11
-60.2227224119
 21
164.0576504145
 31
0.0
  0
LINE
  5
69E
330
1F
100
AcDbEntity
  8
0
  6
Continuous
 62
     7
370
    25
100
AcDbLine
 10
-60.2227224119
 20
164.0576504145
 30
0.0
 11
-59.9729713338
 21
163.4546980254
 31
0.0
  0
LINE
  5
69F
330
1F
100
AcDbEntity
  8
0
  6
Continuous
 62
     7
370
    25
100
AcDbLine
 10
-59.9729713338
 20
163.4546980254
 30
0.0
 11
-59.5756747558
 21
162.9369310764
 31
0.0
  0
LINE
  5
6A0
330
1F
100
AcDbEntity
  8
0
  6
Continuous
 62
     7
370
    25
100
AcDbLine
 10
-59.5756747558
 20
162.9369310764
 30
0.0
 11
-59.0579077831
 21
162.5396345292
 31
0.0
  0
LINE
  5
6A1
330
1F
100
AcDbEntity
  8
0
  6
Continuous
 62
     7
370
    25
100
AcDbLine
 10
-59.0579077831
 20
162.5396345292
 30
0.0
 11
-58.4549553792
 21
162.2898834871
 31
0.0
  0
LINE
  5
6A2
330
1F
100
AcDbEntity
  8
0
  6
Continuous
 62
     7
370
    25
100
AcDbLine
 10
-58.4549553792
 20
162.2898834871
 30
0.0
 11
-57.807907754
 21
162.2046980708
 31
0.0
  0
LINE
  5
6A3
330
1F
100
AcDbEntity
  8
0
  6
Continuous
 62
     7
370
    25
100
AcDbLine
 10
-57.807907754
 20
162.2046980708
 30
0.0
 11
-57.1608601339
 21
162.2898835257
 31
0.0
  0
LINE
  5
6A4
330
1F
100
AcDbEntity
  8
0
  6
Continuous
 62
     7
370
    25
100
AcDbLine
 10
-57.1608601339
 20
162.2898835257
 30
0.0
 11
-56.5579077448
 21
162.5396346037
 31
0.0
  0
LINE
  5
6A5
330
1F
100
AcDbEntity
  8
0
  6
Continuous
 62
     7
370
    25
100
AcDbLine
 10
-56.5579077448
 20
162.5396346037
 30
0.0
 11
-56.0401407958
 21
162.9369311817
 31
0.0
  0
LINE
  5
6A6
330
1F
100
AcDbEntity
  8
0
  6
Continuous
 62
     7
370
    25
100
AcDbLine
 10
17.2963422188
 20
9.2983454313
 30
0.0
 11
18.0354027675
 21
9.8654465361
 31
0.0
  0
LINE
  5
6A7
330
1F
100
AcDbEntity
  8
0
  6
Continuous
 62
     7
370
    25
100
AcDbLine
 10
18.0354027675
 20
9.8654465361
 30
0.0
 11
18.6025038723
 21
10.6045070849
 31
0.0
  0
LINE
  5
6A8
330
1F
100
AcDbEntity
  8
0
  6
Continuous
 62
     7
370
    25
100
AcDbLine
 10
18.6025038723
 20
10.6045070849
 30
0.0
 11
18.9589985301
 21
11.4651613225
 31
0.0
  0
LINE
  5
6A9
330
1F
100
AcDbEntity
  8
0
  6
Continuous
 62
     7
370
    25
100
AcDbLine
 10
18.9589985301
 20
11.4651613225
 30
0.0
 11
19.080592219
 21
12.3887570851
 31
0.0
  0
LINE
  5
6AA
330
1F
100
AcDbEntity
  8
0
  6
Continuous
 62
     7
370
    25
100
AcDbLine
 10
19.080592219
 20
12.3887570851
 30
0.0
 11
18.9589985301
 21
13.3123528476
 31
0.0
  0
LINE
  5
6AB
330
1F
100
AcDbEntity
  8
0
  6
Continuous
 62
     7
370
    25
100
AcDbLine
 10
18.9589985301
 20
13.3123528476
 30
0.0
 11
18.6025038723
 21
14.1730070853
 31
0.0
  0
LINE
  5
6AC
330
1F
100
AcDbEntity
  8
0
  6
Continuous
 62
     7
370
    25
100
AcDbLine
 10
18.6025038723
 20
14.1730070853
 30
0.0
 11
18.0354027675
 21
14.912067634
 31
0.0
  0
LINE
  5
6AD
330
1F
100
AcDbEntity
  8
0
  6
Continuous
 62
     7
370
    25
100
AcDbLine
 10
18.0354027675
 20
14.912067634
 30
0.0
 11
17.2963422188
 21
15.4791687388
 31
0.0
  0
LINE
  5
6AE
330
1F
100
AcDbEntity
  8
0
  6
Continuous
 62
     7
370
    25
100
AcDbLine
 10
17.2963422188
 20
15.4791687388
 30
0.0
 11
16.4356879812
 21
15.8356633966
 31
0.0
  0
LINE
  5
6AF
330
1F
100
AcDbEntity
  8
0
  6
Continuous
 62
     7
370
    25
100
AcDbLine
 10
16.4356879812
 20
15.8356633966
 30
0.0
 11
15.5120922186
 21
15.9572570855
 31
0.0
  0
LINE
  5
6B0
330
1F
100
AcDbEntity
  8
0
  6
Continuous
 62
     7
370
    25
100
AcDbLine
 10
15.5120922186
 20
15.9572570855
 30
0.0
 11
14.588496456
 21
15.8356633966
 31
0.0
  0
LINE
  5
6B1
330
1F
100
AcDbEntity
  8
0
  6
Continuous
 62
     7
370
    25
100
AcDbLine
 10
14.588496456
 20
15.8356633966
 30
0.0
 11
13.7278422184
 21
15.4791687388
 31
0.0
  0
LINE
  5
6B2
330
1F
100
AcDbEntity
  8
0
  6
Continuous
 62
     7
370
    25
100
AcDbLine
 10
13.7278422184
 20
15.4791687388
 30
0.0
 11
12.9887816697
 21
14.912067634
 31
0.0
  0
LINE
  5
6B3
330
1F
100
AcDbEntity
  8
0
  6
Continuous
 62
     7
370
    25
100
AcDbLine
 10
12.9887816697
 20
14.912067634
 30
0.0
 11
12.4216805648
 21
14.1730070853
 31
0.0
  0
LINE
  5
6B4
330
1F
100
AcDbEntity
  8
0
  6
Continuous
 62
     7
370
    25
100
AcDbLine
 10
12.4216805648
 20
14.1730070853
 30
0.0
 11
12.0651859071
 21
13.3123528476
 31
0.0
  0
LINE
  5
6B5
330
1F
100
AcDbEntity
  8
0
  6
Continuous
 62
     7
370
    25
100
AcDbLine
 10
12.0651859071
 20
13.3123528476
 30
0.0
 11
11.9435922182
 21
12.3887570851
 31
0.0
  0
LINE
  5
6B6
330
1F
100
AcDbEntity
  8
0
  6
Continuous
 62
     7
370
    25
100
AcDbLine
 10
11.9435922182
 20
12.3887570851
 30
0.0
 11
12.0651859071
 21
11.4651613225
 31
0.0
  0
LINE
  5
6B7
330
1F
100
AcDbEntity
  8
0
  6
Continuous
 62
     7
370
    25
100
AcDbLine
 10
12.0651859071
 20
11.4651613225
 30
0.0
 11
12.4216805648
 21
10.6045070849
 31
0.0
  0
LINE
  5
6B8
330
1F
100
AcDbEntity
  8
0
  6
Continuous
 62
     7
370
    25
100
AcDbLine
 10
12.4216805648
 20
10.6045070849
 30
0.0
 11
12.9887816697
 21
9.8654465361
 31
0.0
  0
LINE
  5
6B9
330
1F
100
AcDbEntity
  8
0
  6
Continuous
 62
     7
370
    25
100
AcDbLine
 10
12.9887816697
 20
9.8654465361
 30
0.0
 11
13.7278422184
 21
9.2983454313
 31
0.0
  0
LINE
  5
6BA
330
1F
100
AcDbEntity
  8
0
  6
Continuous
 62
     7
370
    25
100
AcDbLine
 10
13.7278422184
 20
9.2983454313
 30
0.0
 11
14.588496456
 21
8.9418507736
 31
0.0
  0
LINE
  5
6BB
330
1F
100
AcDbEntity
  8
0
  6
Continuous
 62
     7
370
    25
100
AcDbLine
 10
14.588496456
 20
8.9418507736
 30
0.0
 11
15.5120922186
 21
8.8202570847
 31
0.0
  0
LINE
  5
6BC
330
1F
100
AcDbEntity
  8
0
  6
Continuous
 62
     7
370
    25
100
AcDbLine
 10
15.5120922186
 20
8.8202570847
 30
0.0
 11
16.4356879811
 21
8.9418507736
 31
0.0
  0
LINE
  5
6BD
330
1F
100
AcDbEntity
  8
0
  6
Continuous
 62
     7
370
    25
100
AcDbLine
 10
16.4356879811
 20
8.9418507736
 30
0.0
 11
17.2963422188
 21
9.2983454313
 31
0.0
  0
LINE
  5
6BE
330
1F
100
AcDbEntity
  8
0
  6
Continuous
 62
     7
370
    25
100
AcDbLine
 10
-57.3930932154
 20
111.1032098912
 30
0.0
 11
-57.3079077811
 21
111.7502575043
 31
0.0
  0
LINE
  5
6BF
330
1F
100
AcDbEntity
  8
0
  6
Continuous
 62
     7
370
    25
100
AcDbLine
 10
-57.3079077811
 20
111.7502575043
 30
0.0
 11
-57.3930932154
 21
112.3973051174
 31
0.0
  0
LINE
  5
6C0
330
1F
100
AcDbEntity
  8
0
  6
Continuous
 62
     7
370
    25
100
AcDbLine
 10
-57.3930932154
 20
112.3973051174
 30
0.0
 11
-57.6428442718
 21
113.0002575049
 31
0.0
  0
LINE
  5
6C1
330
1F
100
AcDbEntity
  8
0
  6
Continuous
 62
     7
370
    25
100
AcDbLine
 10
-57.6428442718
 20
113.0002575049
 30
0.0
 11
-58.0401408285
 21
113.5180244582
 31
0.0
  0
LINE
  5
6C2
330
1F
100
AcDbEntity
  8
0
  6
Continuous
 62
     7
370
    25
100
AcDbLine
 10
-58.0401408285
 20
113.5180244582
 30
0.0
 11
-58.5579077818
 21
113.9153210149
 31
0.0
  0
LINE
  5
6C3
330
1F
100
AcDbEntity
  8
0
  6
Continuous
 62
     7
370
    25
100
AcDbLine
 10
-58.5579077818
 20
113.9153210149
 30
0.0
 11
-59.1608601693
 21
114.1650720712
 31
0.0
  0
LINE
  5
6C4
330
1F
100
AcDbEntity
  8
0
  6
Continuous
 62
     7
370
    25
100
AcDbLine
 10
-59.1608601693
 20
114.1650720712
 30
0.0
 11
-59.8079077824
 21
114.2502575056
 31
0.0
  0
LINE
  5
6C5
330
1F
100
AcDbEntity
  8
0
  6
Continuous
 62
     7
370
    25
100
AcDbLine
 10
-59.8079077824
 20
114.2502575056
 30
0.0
 11
-60.4549553955
 21
114.1650720712
 31
0.0
  0
LINE
  5
6C6
330
1F
100
AcDbEntity
  8
0
  6
Continuous
 62
     7
370
    25
100
AcDbLine
 10
-60.4549553955
 20
114.1650720712
 30
0.0
 11
-61.057907783
 21
113.9153210149
 31
0.0
  0
LINE
  5
6C7
330
1F
100
AcDbEntity
  8
0
  6
Continuous
 62
     7
370
    25
100
AcDbLine
 10
-61.057907783
 20
113.9153210149
 30
0.0
 11
-61.5756747362
 21
113.5180244582
 31
0.0
  0
LINE
  5
6C8
330
1F
100
AcDbEntity
  8
0
  6
Continuous
 62
     7
370
    25
100
AcDbLine
 10
-61.5756747362
 20
113.5180244582
 30
0.0
 11
-61.9729712929
 21
113.0002575049
 31
0.0
  0
LINE
  5
6C9
330
1F
100
AcDbEntity
  8
0
  6
Continuous
 62
     7
370
    25
100
AcDbLine
 10
-61.9729712929
 20
113.0002575049
 30
0.0
 11
-62.2227223493
 21
112.3973051174
 31
0.0
  0
LINE
  5
6CA
330
1F
100
AcDbEntity
  8
0
  6
Continuous
 62
     7
370
    25
100
AcDbLine
 10
-62.2227223493
 20
112.3973051174
 30
0.0
 11
-62.3079077836
 21
111.7502575043
 31
0.0
  0
LINE
  5
6CB
330
1F
100
AcDbEntity
  8
0
  6
Continuous
 62
     7
370
    25
100
AcDbLine
 10
-62.3079077836
 20
111.7502575043
 30
0.0
 11
-62.2227223493
 21
111.1032098912
 31
0.0
  0
LINE
  5
6CC
330
1F
100
AcDbEntity
  8
0
  6
Continuous
 62
     7
370
    25
100
AcDbLine
 10
-62.2227223493
 20
111.1032098912
 30
0.0
 11
-61.9729712929
 21
110.5002575037
 31
0.0
  0
LINE
  5
6CD
330
1F
100
AcDbEntity
  8
0
  6
Continuous
 62
     7
370
    25
100
AcDbLine
 10
-61.9729712929
 20
110.5002575037
 30
0.0
 11
-61.5756747362
 21
109.9824905504
 31
0.0
  0
LINE
  5
6CE
330
1F
100
AcDbEntity
  8
0
  6
Continuous
 62
     7
370
    25
100
AcDbLine
 10
-61.5756747362
 20
109.9824905504
 30
0.0
 11
-61.057907783
 21
109.5851939938
 31
0.0
  0
LINE
  5
6CF
330
1F
100
AcDbEntity
  8
0
  6
Continuous
 62
     7
370
    25
100
AcDbLine
 10
-61.057907783
 20
109.5851939938
 30
0.0
 11
-60.4549553955
 21
109.3354429374
 31
0.0
  0
LINE
  5
6D0
330
1F
100
AcDbEntity
  8
0
  6
Continuous
 62
     7
370
    25
100
AcDbLine
 10
-60.4549553955
 20
109.3354429374
 30
0.0
 11
-59.8079077824
 21
109.250257503
 31
0.0
  0
LINE
  5
6D1
330
1F
100
AcDbEntity
  8
0
  6
Continuous
 62
     7
370
    25
100
AcDbLine
 10
-59.8079077824
 20
109.250257503
 30
0.0
 11
-59.1608601693
 21
109.3354429374
 31
0.0
  0
LINE
  5
6D2
330
1F
100
AcDbEntity
  8
0
  6
Continuous
 62
     7
370
    25
100
AcDbLine
 10
-59.1608601693
 20
109.3354429374
 30
0.0
 11
-58.5579077818
 21
109.5851939938
 31
0.0
  0
LINE
  5
6D3
330
1F
100
AcDbEntity
  8
0
  6
Continuous
 62
     7
370
    25
100
AcDbLine
 10
-58.5579077818
 20
109.5851939938
 30
0.0
 11
-58.0401408285
 21
109.9824905505
 31
0.0
  0
LINE
  5
6D4
330
1F
100
AcDbEntity
  8
0
  6
Continuous
 62
     7
370
    25
100
AcDbLine
 10
-58.0401408285
 20
109.9824905505
 30
0.0
 11
-57.6428442718
 21
110.5002575037
 31
0.0
  0
LINE
  5
6D5
330
1F
100
AcDbEntity
  8
0
  6
Continuous
 62
     7
370
    25
100
AcDbLine
 10
-57.6428442718
 20
110.5002575037
 30
0.0
 11
-57.3930932154
 21
111.1032098912
 31
0.0
  0
LINE
  5
6D6
330
1F
100
AcDbEntity
  8
0
  6
Continuous
 62
     7
370
    25
100
AcDbLine
 10
-19.8079077812
 20
109.2502575043
 30
0.0
 11
-19.1608601681
 21
109.3354429386
 31
0.0
  0
LINE
  5
6D7
330
1F
100
AcDbEntity
  8
0
  6
Continuous
 62
     7
370
    25
100
AcDbLine
 10
-19.1608601681
 20
109.3354429386
 30
0.0
 11
-18.5579077806
 21
109.585193995
 31
0.0
  0
LINE
  5
6D8
330
1F
100
AcDbEntity
  8
0
  6
Continuous
 62
     7
370
    25
100
AcDbLine
 10
-18.5579077806
 20
109.585193995
 30
0.0
 11
-18.0401408274
 21
109.9824905517
 31
0.0
  0
LINE
  5
6D9
330
1F
100
AcDbEntity
  8
0
  6
Continuous
 62
     7
370
    25
100
AcDbLine
 10
-18.0401408274
 20
109.9824905517
 30
0.0
 11
-17.6428442707
 21
110.5002575049
 31
0.0
  0
LINE
  5
6DA
330
1F
100
AcDbEntity
  8
0
  6
Continuous
 62
     7
370
    25
100
AcDbLine
 10
-17.6428442707
 20
110.5002575049
 30
0.0
 11
-17.3930932143
 21
111.1032098925
 31
0.0
  0
LINE
  5
6DB
330
1F
100
AcDbEntity
  8
0
  6
Continuous
 62
     7
370
    25
100
AcDbLine
 10
-17.3930932143
 20
111.1032098925
 30
0.0
 11
-17.30790778
 21
111.7502575056
 31
0.0
  0
LINE
  5
6DC
330
1F
100
AcDbEntity
  8
0
  6
Continuous
 62
     7
370
    25
100
AcDbLine
 10
-17.30790778
 20
111.7502575056
 30
0.0
 11
-17.3930932143
 21
112.3973051187
 31
0.0
  0
LINE
  5
6DD
330
1F
100
AcDbEntity
  8
0
  6
Continuous
 62
     7
370
    25
100
AcDbLine
 10
-17.3930932143
 20
112.3973051187
 30
0.0
 11
-17.6428442707
 21
113.0002575062
 31
0.0
  0
LINE
  5
6DE
330
1F
100
AcDbEntity
  8
0
  6
Continuous
 62
     7
370
    25
100
AcDbLine
 10
-17.6428442707
 20
113.0002575062
 30
0.0
 11
-18.0401408274
 21
113.5180244594
 31
0.0
  0
LINE
  5
6DF
330
1F
100
AcDbEntity
  8
0
  6
Continuous
 62
     7
370
    25
100
AcDbLine
 10
-18.0401408274
 20
113.5180244594
 30
0.0
 11
-18.5579077806
 21
113.9153210161
 31
0.0
  0
LINE
  5
6E0
330
1F
100
AcDbEntity
  8
0
  6
Continuous
 62
     7
370
    25
100
AcDbLine
 10
-18.5579077806
 20
113.9153210161
 30
0.0
 11
-19.1608601681
 21
114.1650720725
 31
0.0
  0
LINE
  5
6E1
330
1F
100
AcDbEntity
  8
0
  6
Continuous
 62
     7
370
    25
100
AcDbLine
 10
-19.1608601681
 20
114.1650720725
 30
0.0
 11
-19.8079077812
 21
114.2502575068
 31
0.0
  0
LINE
  5
6E2
330
1F
100
AcDbEntity
  8
0
  6
Continuous
 62
     7
370
    25
100
AcDbLine
 10
-19.8079077812
 20
114.2502575068
 30
0.0
 11
-20.4549553943
 21
114.1650720725
 31
0.0
  0
LINE
  5
6E3
330
1F
100
AcDbEntity
  8
0
  6
Continuous
 62
     7
370
    25
100
AcDbLine
 10
-20.4549553943
 20
114.1650720725
 30
0.0
 11
-21.0579077819
 21
113.9153210161
 31
0.0
  0
LINE
  5
6E4
330
1F
100
AcDbEntity
  8
0
  6
Continuous
 62
     7
370
    25
100
AcDbLine
 10
-21.0579077819
 20
113.9153210161
 30
0.0
 11
-21.5756747351
 21
113.5180244594
 31
0.0
  0
LINE
  5
6E5
330
1F
100
AcDbEntity
  8
0
  6
Continuous
 62
     7
370
    25
100
AcDbLine
 10
-21.5756747351
 20
113.5180244594
 30
0.0
 11
-21.9729712918
 21
113.0002575062
 31
0.0
  0
LINE
  5
6E6
330
1F
100
AcDbEntity
  8
0
  6
Continuous
 62
     7
370
    25
100
AcDbLine
 10
-21.9729712918
 20
113.0002575062
 30
0.0
 11
-22.2227223482
 21
112.3973051187
 31
0.0
  0
LINE
  5
6E7
330
1F
100
AcDbEntity
  8
0
  6
Continuous
 62
     7
370
    25
100
AcDbLine
 10
-22.2227223482
 20
112.3973051187
 30
0.0
 11
-22.3079077825
 21
111.7502575056
 31
0.0
  0
LINE
  5
6E8
330
1F
100
AcDbEntity
  8
0
  6
Continuous
 62
     7
370
    25
100
AcDbLine
 10
-22.3079077825
 20
111.7502575056
 30
0.0
 11
-22.2227223482
 21
111.1032098925
 31
0.0
  0
LINE
  5
6E9
330
1F
100
AcDbEntity
  8
0
  6
Continuous
 62
     7
370
    25
100
AcDbLine
 10
-22.2227223482
 20
111.1032098925
 30
0.0
 11
-21.9729712918
 21
110.5002575049
 31
0.0
  0
LINE
  5
6EA
330
1F
100
AcDbEntity
  8
0
  6
Continuous
 62
     7
370
    25
100
AcDbLine
 10
-21.9729712918
 20
110.5002575049
 30
0.0
 11
-21.5756747351
 21
109.9824905517
 31
0.0
  0
LINE
  5
6EB
330
1F
100
AcDbEntity
  8
0
  6
Continuous
 62
     7
370
    25
100
AcDbLine
 10
-21.5756747351
 20
109.9824905517
 30
0.0
 11
-21.0579077819
 21
109.585193995
 31
0.0
  0
LINE
  5
6EC
330
1F
100
AcDbEntity
  8
0
  6
Continuous
 62
     7
370
    25
100
AcDbLine
 10
-21.0579077819
 20
109.585193995
 30
0.0
 11
-20.4549553943
 21
109.3354429386
 31
0.0
  0
LINE
  5
6ED
330
1F
100
AcDbEntity
  8
0
  6
Continuous
 62
     7
370
    25
100
AcDbLine
 10
-20.4549553943
 20
109.3354429386
 30
0.0
 11
-19.8079077812
 21
109.2502575043
 31
0.0
  0
LINE
  5
6EE
330
1F
100
AcDbEntity
  8
0
  6
Continuous
 62
     7
370
    25
100
AcDbLine
 10
24.9663996773
 20
167.4104193991
 30
0.0
 11
25.2161507194
 21
168.013371803
 31
0.0
  0
LINE
  5
6EF
330
1F
100
AcDbEntity
  8
0
  6
Continuous
 62
     7
370
    25
100
AcDbLine
 10
25.2161507194
 20
168.013371803
 30
0.0
 11
25.3013361357
 21
168.6604194282
 31
0.0
  0
LINE
  5
6F0
330
1F
100
AcDbEntity
  8
0
  6
Continuous
 62
     7
370
    25
100
AcDbLine
 10
25.3013361357
 20
168.6604194282
 30
0.0
 11
25.2161506808
 21
169.3074670483
 31
0.0
  0
LINE
  5
6F1
330
1F
100
AcDbEntity
  8
0
  6
Continuous
 62
     7
370
    25
100
AcDbLine
 10
25.2161506808
 20
169.3074670483
 30
0.0
 11
24.9663996028
 21
169.9104194374
 31
0.0
  0
LINE
  5
6F2
330
1F
100
AcDbEntity
  8
0
  6
Continuous
 62
     7
370
    25
100
AcDbLine
 10
24.9663996028
 20
169.9104194374
 30
0.0
 11
24.5691030248
 21
170.4281863864
 31
0.0
  0
LINE
  5
6F3
330
1F
100
AcDbEntity
  8
0
  6
Continuous
 62
     7
370
    25
100
AcDbLine
 10
24.5691030248
 20
170.4281863864
 30
0.0
 11
24.051336052
 21
170.8254829336
 31
0.0
  0
LINE
  5
6F4
330
1F
100
AcDbEntity
  8
0
  6
Continuous
 62
     7
370
    25
100
AcDbLine
 10
24.051336052
 20
170.8254829336
 30
0.0
 11
23.4483836481
 21
171.0752339757
 31
0.0
  0
LINE
  5
6F5
330
1F
100
AcDbEntity
  8
0
  6
Continuous
 62
     7
370
    25
100
AcDbLine
 10
23.4483836481
 20
171.0752339757
 30
0.0
 11
22.8013360229
 21
171.160419392
 31
0.0
  0
LINE
  5
6F6
330
1F
100
AcDbEntity
  8
0
  6
Continuous
 62
     7
370
    25
100
AcDbLine
 10
22.8013360229
 20
171.160419392
 30
0.0
 11
22.1542884028
 21
171.0752339371
 31
0.0
  0
LINE
  5
6F7
330
1F
100
AcDbEntity
  8
0
  6
Continuous
 62
     7
370
    25
100
AcDbLine
 10
22.1542884028
 20
171.0752339371
 30
0.0
 11
21.5513360138
 21
170.8254828591
 31
0.0
  0
LINE
  5
6F8
330
1F
100
AcDbEntity
  8
0
  6
Continuous
 62
     7
370
    25
100
AcDbLine
 10
21.5513360138
 20
170.8254828591
 30
0.0
 11
21.0335690647
 21
170.4281862811
 31
0.0
  0
LINE
  5
6F9
330
1F
100
AcDbEntity
  8
0
  6
Continuous
 62
     7
370
    25
100
AcDbLine
 10
21.0335690647
 20
170.4281862811
 30
0.0
 11
20.6362725176
 21
169.9104193083
 31
0.0
  0
LINE
  5
6FA
330
1F
100
AcDbEntity
  8
0
  6
Continuous
 62
     7
370
    25
100
AcDbLine
 10
20.6362725176
 20
169.9104193083
 30
0.0
 11
20.3865214755
 21
169.3074669044
 31
0.0
  0
LINE
  5
6FB
330
1F
100
AcDbEntity
  8
0
  6
Continuous
 62
     7
370
    25
100
AcDbLine
 10
20.3865214755
 20
169.3074669044
 30
0.0
 11
20.3013360592
 21
168.6604192792
 31
0.0
  0
LINE
  5
6FC
330
1F
100
AcDbEntity
  8
0
  6
Continuous
 62
     7
370
    25
100
AcDbLine
 10
20.3013360592
 20
168.6604192792
 30
0.0
 11
20.386521514
 21
168.0133716591
 31
0.0
  0
LINE
  5
6FD
330
1F
100
AcDbEntity
  8
0
  6
Continuous
 62
     7
370
    25
100
AcDbLine
 10
20.386521514
 20
168.0133716591
 30
0.0
 11
20.6362725921
 21
167.4104192701
 31
0.0
  0
LINE
  5
6FE
330
1F
100
AcDbEntity
  8
0
  6
Continuous
 62
     7
370
    25
100
AcDbLine
 10
20.6362725921
 20
167.4104192701
 30
0.0
 11
21.0335691701
 21
166.892652321
 31
0.0
  0
LINE
  5
6FF
330
1F
100
AcDbEntity
  8
0
  6
Continuous
 62
     7
370
    25
100
AcDbLine
 10
21.0335691701
 20
166.892652321
 30
0.0
 11
21.5513361428
 21
166.4953557739
 31
0.0
  0
LINE
  5
700
330
1F
100
AcDbEntity
  8
0
  6
Continuous
 62
     7
370
    25
100
AcDbLine
 10
21.5513361428
 20
166.4953557739
 30
0.0
 11
22.1542885467
 21
166.2456047318
 31
0.0
  0
LINE
  5
701
330
1F
100
AcDbEntity
  8
0
  6
Continuous
 62
     7
370
    25
100
AcDbLine
 10
22.1542885467
 20
166.2456047318
 30
0.0
 11
22.8013361719
 21
166.1604193155
 31
0.0
  0
LINE
  5
702
330
1F
100
AcDbEntity
  8
0
  6
Continuous
 62
     7
370
    25
100
AcDbLine
 10
22.8013361719
 20
166.1604193155
 30
0.0
 11
23.448383792
 21
166.2456047703
 31
0.0
  0
LINE
  5
703
330
1F
100
AcDbEntity
  8
0
  6
Continuous
 62
     7
370
    25
100
AcDbLine
 10
23.448383792
 20
166.2456047703
 30
0.0
 11
24.0513361811
 21
166.4953558484
 31
0.0
  0
LINE
  5
704
330
1F
100
AcDbEntity
  8
0
  6
Continuous
 62
     7
370
    25
100
AcDbLine
 10
24.0513361811
 20
166.4953558484
 30
0.0
 11
24.5691031301
 21
166.8926524264
 31
0.0
  0
LINE
  5
705
330
1F
100
AcDbEntity
  8
0
  6
Continuous
 62
     7
370
    25
100
AcDbLine
 10
24.5691031301
 20
166.8926524264
 30
0.0
 11
24.9663996773
 21
167.4104193991
 31
0.0
  0
LINE
  5
706
330
1F
100
AcDbEntity
  8
0
  6
Continuous
 62
     7
370
    25
100
AcDbLine
 10
92.6163422186
 20
15.4791687388
 30
0.0
 11
91.755687981
 21
15.8356633966
 31
0.0
  0
LINE
  5
707
330
1F
100
AcDbEntity
  8
0
  6
Continuous
 62
     7
370
    25
100
AcDbLine
 10
91.755687981
 20
15.8356633966
 30
0.0
 11
90.8320922184
 21
15.9572570855
 31
0.0
  0
LINE
  5
708
330
1F
100
AcDbEntity
  8
0
  6
Continuous
 62
     7
370
    25
100
AcDbLine
 10
90.8320922184
 20
15.9572570855
 30
0.0
 11
89.9084964559
 21
15.8356633966
 31
0.0
  0
LINE
  5
709
330
1F
100
AcDbEntity
  8
0
  6
Continuous
 62
     7
370
    25
100
AcDbLine
 10
89.9084964559
 20
15.8356633966
 30
0.0
 11
89.0478422182
 21
15.4791687388
 31
0.0
  0
LINE
  5
70A
330
1F
100
AcDbEntity
  8
0
  6
Continuous
 62
     7
370
    25
100
AcDbLine
 10
89.0478422182
 20
15.4791687388
 30
0.0
 11
88.3087816695
 21
14.912067634
 31
0.0
  0
LINE
  5
70B
330
1F
100
AcDbEntity
  8
0
  6
Continuous
 62
     7
370
    25
100
AcDbLine
 10
88.3087816695
 20
14.912067634
 30
0.0
 11
87.7416805647
 21
14.1730070853
 31
0.0
  0
LINE
  5
70C
330
1F
100
AcDbEntity
  8
0
  6
Continuous
 62
     7
370
    25
100
AcDbLine
 10
87.7416805647
 20
14.1730070853
 30
0.0
 11
87.3851859069
 21
13.3123528476
 31
0.0
  0
LINE
  5
70D
330
1F
100
AcDbEntity
  8
0
  6
Continuous
 62
     7
370
    25
100
AcDbLine
 10
87.3851859069
 20
13.3123528476
 30
0.0
 11
87.263592218
 21
12.3887570851
 31
0.0
  0
LINE
  5
70E
330
1F
100
AcDbEntity
  8
0
  6
Continuous
 62
     7
370
    25
100
AcDbLine
 10
87.263592218
 20
12.3887570851
 30
0.0
 11
87.3851859069
 21
11.4651613225
 31
0.0
  0
LINE
  5
70F
330
1F
100
AcDbEntity
  8
0
  6
Continuous
 62
     7
370
    25
100
AcDbLine
 10
87.3851859069
 20
11.4651613225
 30
0.0
 11
87.7416805647
 21
10.6045070849
 31
0.0
  0
LINE
  5
710
330
1F
100
AcDbEntity
  8
0
  6
Continuous
 62
     7
370
    25
100
AcDbLine
 10
87.7416805647
 20
10.6045070849
 30
0.0
 11
88.3087816695
 21
9.8654465361
 31
0.0
  0
LINE
  5
711
330
1F
100
AcDbEntity
  8
0
  6
Continuous
 62
     7
370
    25
100
AcDbLine
 10
88.3087816695
 20
9.8654465361
 30
0.0
 11
89.0478422182
 21
9.2983454313
 31
0.0
  0
LINE
  5
712
330
1F
100
AcDbEntity
  8
0
  6
Continuous
 62
     7
370
    25
100
AcDbLine
 10
89.0478422182
 20
9.2983454313
 30
0.0
 11
89.9084964559
 21
8.9418507736
 31
0.0
  0
LINE
  5
713
330
1F
100
AcDbEntity
  8
0
  6
Continuous
 62
     7
370
    25
100
AcDbLine
 10
89.9084964559
 20
8.9418507736
 30
0.0
 11
90.8320922184
 21
8.8202570847
 31
0.0
  0
LINE
  5
714
330
1F
100
AcDbEntity
  8
0
  6
Continuous
 62
     7
370
    25
100
AcDbLine
 10
90.8320922184
 20
8.8202570847
 30
0.0
 11
91.755687981
 21
8.9418507736
 31
0.0
  0
LINE
  5
715
330
1F
100
AcDbEntity
  8
0
  6
Continuous
 62
     7
370
    25
100
AcDbLine
 10
91.755687981
 20
8.9418507736
 30
0.0
 11
92.6163422186
 21
9.2983454313
 31
0.0
  0
LINE
  5
716
330
1F
100
AcDbEntity
  8
0
  6
Continuous
 62
     7
370
    25
100
AcDbLine
 10
92.6163422186
 20
9.2983454313
 30
0.0
 11
93.3554027674
 21
9.8654465361
 31
0.0
  0
LINE
  5
717
330
1F
100
AcDbEntity
  8
0
  6
Continuous
 62
     7
370
    25
100
AcDbLine
 10
93.3554027674
 20
9.8654465361
 30
0.0
 11
93.9225038722
 21
10.6045070849
 31
0.0
  0
LINE
  5
718
330
1F
100
AcDbEntity
  8
0
  6
Continuous
 62
     7
370
    25
100
AcDbLine
 10
93.9225038722
 20
10.6045070849
 30
0.0
 11
94.2789985299
 21
11.4651613225
 31
0.0
  0
LINE
  5
719
330
1F
100
AcDbEntity
  8
0
  6
Continuous
 62
     7
370
    25
100
AcDbLine
 10
94.2789985299
 20
11.4651613225
 30
0.0
 11
94.4005922188
 21
12.3887570851
 31
0.0
  0
LINE
  5
71A
330
1F
100
AcDbEntity
  8
0
  6
Continuous
 62
     7
370
    25
100
AcDbLine
 10
94.4005922188
 20
12.3887570851
 30
0.0
 11
94.2789985299
 21
13.3123528476
 31
0.0
  0
LINE
  5
71B
330
1F
100
AcDbEntity
  8
0
  6
Continuous
 62
     7
370
    25
100
AcDbLine
 10
94.2789985299
 20
13.3123528476
 30
0.0
 11
93.9225038722
 21
14.1730070853
 31
0.0
  0
LINE
  5
71C
330
1F
100
AcDbEntity
  8
0
  6
Continuous
 62
     7
370
    25
100
AcDbLine
 10
93.9225038722
 20
14.1730070853
 30
0.0
 11
93.3554027674
 21
14.912067634
 31
0.0
  0
LINE
  5
71D
330
1F
100
AcDbEntity
  8
0
  6
Continuous
 62
     7
370
    25
100
AcDbLine
 10
93.3554027674
 20
14.912067634
 30
0.0
 11
92.6163422186
 21
15.4791687388
 31
0.0
  0
LINE
  5
71E
330
1F
100
AcDbEntity
  8
0
  6
Continuous
 62
     7
370
    25
100
AcDbLine
 10
-36.1657369177
 20
186.8958139632
 30
0.0
 11
-35.7684403706
 21
187.413580936
 31
0.0
  0
LINE
  5
71F
330
1F
100
AcDbEntity
  8
0
  6
Continuous
 62
     7
370
    25
100
AcDbLine
 10
-35.7684403706
 20
187.413580936
 30
0.0
 11
-35.5186893284
 21
188.0165333399
 31
0.0
  0
LINE
  5
720
330
1F
100
AcDbEntity
  8
0
  6
Continuous
 62
     7
370
    25
100
AcDbLine
 10
-35.5186893284
 20
188.0165333399
 30
0.0
 11
-35.4335039121
 21
188.6635809651
 31
0.0
  0
LINE
  5
721
330
1F
100
AcDbEntity
  8
0
  6
Continuous
 62
     7
370
    25
100
AcDbLine
 10
-35.4335039121
 20
188.6635809651
 30
0.0
 11
-35.518689367
 21
189.3106285852
 31
0.0
  0
LINE
  5
722
330
1F
100
AcDbEntity
  8
0
  6
Continuous
 62
     7
370
    25
100
AcDbLine
 10
-35.518689367
 20
189.3106285852
 30
0.0
 11
-35.7684404451
 21
189.9135809742
 31
0.0
  0
LINE
  5
723
330
1F
100
AcDbEntity
  8
0
  6
Continuous
 62
     7
370
    25
100
AcDbLine
 10
-35.7684404451
 20
189.9135809742
 30
0.0
 11
-36.1657370231
 21
190.4313479233
 31
0.0
  0
LINE
  5
724
330
1F
100
AcDbEntity
  8
0
  6
Continuous
 62
     7
370
    25
100
AcDbLine
 10
-36.1657370231
 20
190.4313479233
 30
0.0
 11
-36.6835039958
 21
190.8286444704
 31
0.0
  0
LINE
  5
725
330
1F
100
AcDbEntity
  8
0
  6
Continuous
 62
     7
370
    25
100
AcDbLine
 10
-36.6835039958
 20
190.8286444704
 30
0.0
 11
-37.2864563997
 21
191.0783955125
 31
0.0
  0
LINE
  5
726
330
1F
100
AcDbEntity
  8
0
  6
Continuous
 62
     7
370
    25
100
AcDbLine
 10
-37.2864563997
 20
191.0783955125
 30
0.0
 11
-37.9335040249
 21
191.1635809288
 31
0.0
  0
LINE
  5
727
330
1F
100
AcDbEntity
  8
0
  6
Continuous
 62
     7
370
    25
100
AcDbLine
 10
-37.9335040249
 20
191.1635809288
 30
0.0
 11
-38.580551645
 21
191.078395474
 31
0.0
  0
LINE
  5
728
330
1F
100
AcDbEntity
  8
0
  6
Continuous
 62
     7
370
    25
100
AcDbLine
 10
-38.580551645
 20
191.078395474
 30
0.0
 11
-39.1835040341
 21
190.8286443959
 31
0.0
  0
LINE
  5
729
330
1F
100
AcDbEntity
  8
0
  6
Continuous
 62
     7
370
    25
100
AcDbLine
 10
-39.1835040341
 20
190.8286443959
 30
0.0
 11
-39.7012709831
 21
190.4313478179
 31
0.0
  0
LINE
  5
72A
330
1F
100
AcDbEntity
  8
0
  6
Continuous
 62
     7
370
    25
100
AcDbLine
 10
-39.7012709831
 20
190.4313478179
 30
0.0
 11
-40.0985675303
 21
189.9135808452
 31
0.0
  0
LINE
  5
72B
330
1F
100
AcDbEntity
  8
0
  6
Continuous
 62
     7
370
    25
100
AcDbLine
 10
-40.0985675303
 20
189.9135808452
 30
0.0
 11
-40.3483185724
 21
189.3106284413
 31
0.0
  0
LINE
  5
72C
330
1F
100
AcDbEntity
  8
0
  6
Continuous
 62
     7
370
    25
100
AcDbLine
 10
-40.3483185724
 20
189.3106284413
 30
0.0
 11
-40.4335039887
 21
188.6635808161
 31
0.0
  0
LINE
  5
72D
330
1F
100
AcDbEntity
  8
0
  6
Continuous
 62
     7
370
    25
100
AcDbLine
 10
-40.4335039887
 20
188.6635808161
 30
0.0
 11
-40.3483185338
 21
188.0165331959
 31
0.0
  0
LINE
  5
72E
330
1F
100
AcDbEntity
  8
0
  6
Continuous
 62
     7
370
    25
100
AcDbLine
 10
-40.3483185338
 20
188.0165331959
 30
0.0
 11
-40.0985674558
 21
187.4135808069
 31
0.0
  0
LINE
  5
72F
330
1F
100
AcDbEntity
  8
0
  6
Continuous
 62
     7
370
    25
100
AcDbLine
 10
-40.0985674558
 20
187.4135808069
 30
0.0
 11
-39.7012708778
 21
186.8958138579
 31
0.0
  0
LINE
  5
730
330
1F
100
AcDbEntity
  8
0
  6
Continuous
 62
     7
370
    25
100
AcDbLine
 10
-39.7012708778
 20
186.8958138579
 30
0.0
 11
-39.183503905
 21
186.4985173107
 31
0.0
  0
LINE
  5
731
330
1F
100
AcDbEntity
  8
0
  6
Continuous
 62
     7
370
    25
100
AcDbLine
 10
-39.183503905
 20
186.4985173107
 30
0.0
 11
-38.5805515011
 21
186.2487662686
 31
0.0
  0
LINE
  5
732
330
1F
100
AcDbEntity
  8
0
  6
Continuous
 62
     7
370
    25
100
AcDbLine
 10
-38.5805515011
 20
186.2487662686
 30
0.0
 11
-37.9335038759
 21
186.1635808523
 31
0.0
  0
LINE
  5
733
330
1F
100
AcDbEntity
  8
0
  6
Continuous
 62
     7
370
    25
100
AcDbLine
 10
-37.9335038759
 20
186.1635808523
 30
0.0
 11
-37.2864562558
 21
186.2487663072
 31
0.0
  0
LINE
  5
734
330
1F
100
AcDbEntity
  8
0
  6
Continuous
 62
     7
370
    25
100
AcDbLine
 10
-37.2864562558
 20
186.2487663072
 30
0.0
 11
-36.6835038668
 21
186.4985173852
 31
0.0
  0
LINE
  5
735
330
1F
100
AcDbEntity
  8
0
  6
Continuous
 62
     7
370
    25
100
AcDbLine
 10
-36.6835038668
 20
186.4985173852
 30
0.0
 11
-36.1657369177
 21
186.8958139632
 31
0.0
  0
LINE
  5
736
330
1F
100
AcDbEntity
  8
0
  6
Continuous
 62
     7
370
    25
100
AcDbLine
 10
-56.040141134
 20
142.9369311654
 30
0.0
 11
-55.6428445869
 21
143.4546981381
 31
0.0
  0
LINE
  5
737
330
1F
100
AcDbEntity
  8
0
  6
Continuous
 62
     7
370
    25
100
AcDbLine
 10
-55.6428445869
 20
143.4546981381
 30
0.0
 11
-55.3930935448
 21
144.0576505421
 31
0.0
  0
LINE
  5
738
330
1F
100
AcDbEntity
  8
0
  6
Continuous
 62
     7
370
    25
100
AcDbLine
 10
-55.3930935448
 20
144.0576505421
 30
0.0
 11
-55.3079081285
 21
144.7046981673
 31
0.0
  0
LINE
  5
739
330
1F
100
AcDbEntity
  8
0
  6
Continuous
 62
     7
370
    25
100
AcDbLine
 10
-55.3079081285
 20
144.7046981673
 30
0.0
 11
-55.3930935833
 21
145.3517457874
 31
0.0
  0
LINE
  5
73A
330
1F
100
AcDbEntity
  8
0
  6
Continuous
 62
     7
370
    25
100
AcDbLine
 10
-55.3930935833
 20
145.3517457874
 30
0.0
 11
-55.6428446614
 21
145.9546981764
 31
0.0
  0
LINE
  5
73B
330
1F
100
AcDbEntity
  8
0
  6
Continuous
 62
     7
370
    25
100
AcDbLine
 10
-55.6428446614
 20
145.9546981764
 30
0.0
 11
-56.0401412394
 21
146.4724651255
 31
0.0
  0
LINE
  5
73C
330
1F
100
AcDbEntity
  8
0
  6
Continuous
 62
     7
370
    25
100
AcDbLine
 10
-56.0401412394
 20
146.4724651255
 30
0.0
 11
-56.5579082121
 21
146.8697616726
 31
0.0
  0
LINE
  5
73D
330
1F
100
AcDbEntity
  8
0
  6
Continuous
 62
     7
370
    25
100
AcDbLine
 10
-56.5579082121
 20
146.8697616726
 30
0.0
 11
-57.160860616
 21
147.1195127147
 31
0.0
  0
LINE
  5
73E
330
1F
100
AcDbEntity
  8
0
  6
Continuous
 62
     7
370
    25
100
AcDbLine
 10
-57.160860616
 20
147.1195127147
 30
0.0
 11
-57.8079082412
 21
147.204698131
 31
0.0
  0
LINE
  5
73F
330
1F
100
AcDbEntity
  8
0
  6
Continuous
 62
     7
370
    25
100
AcDbLine
 10
-57.8079082412
 20
147.204698131
 30
0.0
 11
-58.4549558614
 21
147.1195126762
 31
0.0
  0
LINE
  5
740
330
1F
100
AcDbEntity
  8
0
  6
Continuous
 62
     7
370
    25
100
AcDbLine
 10
-58.4549558614
 20
147.1195126762
 30
0.0
 11
-59.0579082504
 21
146.8697615981
 31
0.0
  0
LINE
  5
741
330
1F
100
AcDbEntity
  8
0
  6
Continuous
 62
     7
370
    25
100
AcDbLine
 10
-59.0579082504
 20
146.8697615981
 30
0.0
 11
-59.5756751994
 21
146.4724650201
 31
0.0
  0
LINE
  5
742
330
1F
100
AcDbEntity
  8
0
  6
Continuous
 62
     7
370
    25
100
AcDbLine
 10
-59.5756751994
 20
146.4724650201
 30
0.0
 11
-59.9729717466
 21
145.9546980474
 31
0.0
  0
LINE
  5
743
330
1F
100
AcDbEntity
  8
0
  6
Continuous
 62
     7
370
    25
100
AcDbLine
 10
-59.9729717466
 20
145.9546980474
 30
0.0
 11
-60.2227227887
 21
145.3517456434
 31
0.0
  0
LINE
  5
744
330
1F
100
AcDbEntity
  8
0
  6
Continuous
 62
     7
370
    25
100
AcDbLine
 10
-60.2227227887
 20
145.3517456434
 30
0.0
 11
-60.307908205
 21
144.7046980182
 31
0.0
  0
LINE
  5
745
330
1F
100
AcDbEntity
  8
0
  6
Continuous
 62
     7
370
    25
100
AcDbLine
 10
-60.307908205
 20
144.7046980182
 30
0.0
 11
-60.2227227501
 21
144.0576503981
 31
0.0
  0
LINE
  5
746
330
1F
100
AcDbEntity
  8
0
  6
Continuous
 62
     7
370
    25
100
AcDbLine
 10
-60.2227227501
 20
144.0576503981
 30
0.0
 11
-59.9729716721
 21
143.4546980091
 31
0.0
  0
LINE
  5
747
330
1F
100
AcDbEntity
  8
0
  6
Continuous
 62
     7
370
    25
100
AcDbLine
 10
-59.9729716721
 20
143.4546980091
 30
0.0
 11
-59.5756750941
 21
142.93693106
 31
0.0
  0
LINE
  5
748
330
1F
100
AcDbEntity
  8
0
  6
Continuous
 62
     7
370
    25
100
AcDbLine
 10
-59.5756750941
 20
142.93693106
 30
0.0
 11
-59.0579081213
 21
142.5396345129
 31
0.0
  0
LINE
  5
749
330
1F
100
AcDbEntity
  8
0
  6
Continuous
 62
     7
370
    25
100
AcDbLine
 10
-59.0579081213
 20
142.5396345129
 30
0.0
 11
-58.4549557174
 21
142.2898834708
 31
0.0
  0
LINE
  5
74A
330
1F
100
AcDbEntity
  8
0
  6
Continuous
 62
     7
370
    25
100
AcDbLine
 10
-58.4549557174
 20
142.2898834708
 30
0.0
 11
-57.8079080922
 21
142.2046980545
 31
0.0
  0
LINE
  5
74B
330
1F
100
AcDbEntity
  8
0
  6
Continuous
 62
     7
370
    25
100
AcDbLine
 10
-57.8079080922
 20
142.2046980545
 30
0.0
 11
-57.1608604721
 21
142.2898835094
 31
0.0
  0
LINE
  5
74C
330
1F
100
AcDbEntity
  8
0
  6
Continuous
 62
     7
370
    25
100
AcDbLine
 10
-57.1608604721
 20
142.2898835094
 30
0.0
 11
-56.5579080831
 21
142.5396345874
 31
0.0
  0
LINE
  5
74D
330
1F
100
AcDbEntity
  8
0
  6
Continuous
 62
     7
370
    25
100
AcDbLine
 10
-56.5579080831
 20
142.5396345874
 30
0.0
 11
-56.040141134
 21
142.9369311654
 31
0.0
  0
LINE
  5
74E
330
1F
100
AcDbEntity
  8
0
  6
Continuous
 62
     7
370
    25
100
AcDbLine
 10
89.0643252657
 20
113.5180244607
 30
0.0
 11
88.667028709
 21
113.0002575075
 31
0.0
  0
LINE
  5
74F
330
1F
100
AcDbEntity
  8
0
  6
Continuous
 62
     7
370
    25
100
AcDbLine
 10
88.667028709
 20
113.0002575075
 30
0.0
 11
88.4172776526
 21
112.3973051199
 31
0.0
  0
LINE
  5
750
330
1F
100
AcDbEntity
  8
0
  6
Continuous
 62
     7
370
    25
100
AcDbLine
 10
88.4172776526
 20
112.3973051199
 30
0.0
 11
88.3320922183
 21
111.7502575068
 31
0.0
  0
LINE
  5
751
330
1F
100
AcDbEntity
  8
0
  6
Continuous
 62
     7
370
    25
100
AcDbLine
 10
88.3320922183
 20
111.7502575068
 30
0.0
 11
88.4172776526
 21
111.1032098937
 31
0.0
  0
LINE
  5
752
330
1F
100
AcDbEntity
  8
0
  6
Continuous
 62
     7
370
    25
100
AcDbLine
 10
88.4172776526
 20
111.1032098937
 30
0.0
 11
88.667028709
 21
110.5002575062
 31
0.0
  0
LINE
  5
753
330
1F
100
AcDbEntity
  8
0
  6
Continuous
 62
     7
370
    25
100
AcDbLine
 10
88.667028709
 20
110.5002575062
 30
0.0
 11
89.0643252657
 21
109.982490553
 31
0.0
  0
LINE
  5
754
330
1F
100
AcDbEntity
  8
0
  6
Continuous
 62
     7
370
    25
100
AcDbLine
 10
89.0643252657
 20
109.982490553
 30
0.0
 11
89.582092219
 21
109.5851939963
 31
0.0
  0
LINE
  5
755
330
1F
100
AcDbEntity
  8
0
  6
Continuous
 62
     7
370
    25
100
AcDbLine
 10
89.582092219
 20
109.5851939963
 30
0.0
 11
90.1850446065
 21
109.3354429399
 31
0.0
  0
LINE
  5
756
330
1F
100
AcDbEntity
  8
0
  6
Continuous
 62
     7
370
    25
100
AcDbLine
 10
90.1850446065
 20
109.3354429399
 30
0.0
 11
90.8320922196
 21
109.2502575056
 31
0.0
  0
LINE
  5
757
330
1F
100
AcDbEntity
  8
0
  6
Continuous
 62
     7
370
    25
100
AcDbLine
 10
90.8320922196
 20
109.2502575056
 30
0.0
 11
91.4791398327
 21
109.3354429399
 31
0.0
  0
LINE
  5
758
330
1F
100
AcDbEntity
  8
0
  6
Continuous
 62
     7
370
    25
100
AcDbLine
 10
91.4791398327
 20
109.3354429399
 30
0.0
 11
92.0820922202
 21
109.5851939963
 31
0.0
  0
LINE
  5
759
330
1F
100
AcDbEntity
  8
0
  6
Continuous
 62
     7
370
    25
100
AcDbLine
 10
92.0820922202
 20
109.5851939963
 30
0.0
 11
92.5998591734
 21
109.982490553
 31
0.0
  0
LINE
  5
75A
330
1F
100
AcDbEntity
  8
0
  6
Continuous
 62
     7
370
    25
100
AcDbLine
 10
92.5998591734
 20
109.982490553
 30
0.0
 11
92.9971557301
 21
110.5002575062
 31
0.0
  0
LINE
  5
75B
330
1F
100
AcDbEntity
  8
0
  6
Continuous
 62
     7
370
    25
100
AcDbLine
 10
92.9971557301
 20
110.5002575062
 30
0.0
 11
93.2469067865
 21
111.1032098937
 31
0.0
  0
LINE
  5
75C
330
1F
100
AcDbEntity
  8
0
  6
Continuous
 62
     7
370
    25
100
AcDbLine
 10
93.2469067865
 20
111.1032098937
 30
0.0
 11
93.3320922208
 21
111.7502575068
 31
0.0
  0
LINE
  5
75D
330
1F
100
AcDbEntity
  8
0
  6
Continuous
 62
     7
370
    25
100
AcDbLine
 10
93.3320922208
 20
111.7502575068
 30
0.0
 11
93.2469067865
 21
112.3973051199
 31
0.0
  0
LINE
  5
75E
330
1F
100
AcDbEntity
  8
0
  6
Continuous
 62
     7
370
    25
100
AcDbLine
 10
93.2469067865
 20
112.3973051199
 30
0.0
 11
92.9971557301
 21
113.0002575075
 31
0.0
  0
LINE
  5
75F
330
1F
100
AcDbEntity
  8
0
  6
Continuous
 62
     7
370
    25
100
AcDbLine
 10
92.9971557301
 20
113.0002575075
 30
0.0
 11
92.5998591734
 21
113.5180244607
 31
0.0
  0
LINE
  5
760
330
1F
100
AcDbEntity
  8
0
  6
Continuous
 62
     7
370
    25
100
AcDbLine
 10
92.5998591734
 20
113.5180244607
 30
0.0
 11
92.0820922202
 21
113.9153210174
 31
0.0
  0
LINE
  5
761
330
1F
100
AcDbEntity
  8
0
  6
Continuous
 62
     7
370
    25
100
AcDbLine
 10
92.0820922202
 20
113.9153210174
 30
0.0
 11
91.4791398327
 21
114.1650720738
 31
0.0
  0
LINE
  5
762
330
1F
100
AcDbEntity
  8
0
  6
Continuous
 62
     7
370
    25
100
AcDbLine
 10
91.4791398327
 20
114.1650720738
 30
0.0
 11
90.8320922196
 21
114.2502575081
 31
0.0
  0
LINE
  5
763
330
1F
100
AcDbEntity
  8
0
  6
Continuous
 62
     7
370
    25
100
AcDbLine
 10
90.8320922196
 20
114.2502575081
 30
0.0
 11
90.1850446065
 21
114.1650720738
 31
0.0
  0
LINE
  5
764
330
1F
100
AcDbEntity
  8
0
  6
Continuous
 62
     7
370
    25
100
AcDbLine
 10
90.1850446065
 20
114.1650720738
 30
0.0
 11
89.582092219
 21
113.9153210174
 31
0.0
  0
LINE
  5
765
330
1F
100
AcDbEntity
  8
0
  6
Continuous
 62
     7
370
    25
100
AcDbLine
 10
89.582092219
 20
113.9153210174
 30
0.0
 11
89.0643252657
 21
113.5180244607
 31
0.0
  0
LINE
  5
766
330
1F
100
AcDbEntity
  8
0
  6
Continuous
 62
     7
370
    25
100
AcDbLine
 10
-56.7174961275
 20
14.1730070853
 30
0.0
 11
-57.2845972323
 21
14.912067634
 31
0.0
  0
LINE
  5
767
330
1F
100
AcDbEntity
  8
0
  6
Continuous
 62
     7
370
    25
100
AcDbLine
 10
-57.2845972323
 20
14.912067634
 30
0.0
 11
-58.023657781
 21
15.4791687388
 31
0.0
  0
LINE
  5
768
330
1F
100
AcDbEntity
  8
0
  6
Continuous
 62
     7
370
    25
100
AcDbLine
 10
-58.023657781
 20
15.4791687388
 30
0.0
 11
-58.8843120187
 21
15.8356633966
 31
0.0
  0
LINE
  5
769
330
1F
100
AcDbEntity
  8
0
  6
Continuous
 62
     7
370
    25
100
AcDbLine
 10
-58.8843120187
 20
15.8356633966
 30
0.0
 11
-59.8079077812
 21
15.9572570855
 31
0.0
  0
LINE
  5
76A
330
1F
100
AcDbEntity
  8
0
  6
Continuous
 62
     7
370
    25
100
AcDbLine
 10
-59.8079077812
 20
15.9572570855
 30
0.0
 11
-60.7315035438
 21
15.8356633966
 31
0.0
  0
LINE
  5
76B
330
1F
100
AcDbEntity
  8
0
  6
Continuous
 62
     7
370
    25
100
AcDbLine
 10
-60.7315035438
 20
15.8356633966
 30
0.0
 11
-61.5921577814
 21
15.4791687388
 31
0.0
  0
LINE
  5
76C
330
1F
100
AcDbEntity
  8
0
  6
Continuous
 62
     7
370
    25
100
AcDbLine
 10
-61.5921577814
 20
15.4791687388
 30
0.0
 11
-62.3312183302
 21
14.912067634
 31
0.0
  0
LINE
  5
76D
330
1F
100
AcDbEntity
  8
0
  6
Continuous
 62
     7
370
    25
100
AcDbLine
 10
-62.3312183302
 20
14.912067634
 30
0.0
 11
-62.898319435
 21
14.1730070853
 31
0.0
  0
LINE
  5
76E
330
1F
100
AcDbEntity
  8
0
  6
Continuous
 62
     7
370
    25
100
AcDbLine
 10
-62.898319435
 20
14.1730070853
 30
0.0
 11
-63.2548140927
 21
13.3123528476
 31
0.0
  0
LINE
  5
76F
330
1F
100
AcDbEntity
  8
0
  6
Continuous
 62
     7
370
    25
100
AcDbLine
 10
-63.2548140927
 20
13.3123528476
 30
0.0
 11
-63.3764077816
 21
12.3887570851
 31
0.0
  0
LINE
  5
770
330
1F
100
AcDbEntity
  8
0
  6
Continuous
 62
     7
370
    25
100
AcDbLine
 10
-63.3764077816
 20
12.3887570851
 30
0.0
 11
-63.2548140927
 21
11.4651613225
 31
0.0
  0
LINE
  5
771
330
1F
100
AcDbEntity
  8
0
  6
Continuous
 62
     7
370
    25
100
AcDbLine
 10
-63.2548140927
 20
11.4651613225
 30
0.0
 11
-62.898319435
 21
10.6045070849
 31
0.0
  0
LINE
  5
772
330
1F
100
AcDbEntity
  8
0
  6
Continuous
 62
     7
370
    25
100
AcDbLine
 10
-62.898319435
 20
10.6045070849
 30
0.0
 11
-62.3312183302
 21
9.8654465361
 31
0.0
  0
LINE
  5
773
330
1F
100
AcDbEntity
  8
0
  6
Continuous
 62
     7
370
    25
100
AcDbLine
 10
-62.3312183302
 20
9.8654465361
 30
0.0
 11
-61.5921577814
 21
9.2983454313
 31
0.0
  0
LINE
  5
774
330
1F
100
AcDbEntity
  8
0
  6
Continuous
 62
     7
370
    25
100
AcDbLine
 10
-61.5921577814
 20
9.2983454313
 30
0.0
 11
-60.7315035438
 21
8.9418507736
 31
0.0
  0
LINE
  5
775
330
1F
100
AcDbEntity
  8
0
  6
Continuous
 62
     7
370
    25
100
AcDbLine
 10
-60.7315035438
 20
8.9418507736
 30
0.0
 11
-59.8079077812
 21
8.8202570847
 31
0.0
  0
LINE
  5
776
330
1F
100
AcDbEntity
  8
0
  6
Continuous
 62
     7
370
    25
100
AcDbLine
 10
-59.8079077812
 20
8.8202570847
 30
0.0
 11
-58.8843120187
 21
8.9418507736
 31
0.0
  0
LINE
  5
777
330
1F
100
AcDbEntity
  8
0
  6
Continuous
 62
     7
370
    25
100
AcDbLine
 10
-58.8843120187
 20
8.9418507736
 30
0.0
 11
-58.023657781
 21
9.2983454313
 31
0.0
  0
LINE
  5
778
330
1F
100
AcDbEntity
  8
0
  6
Continuous
 62
     7
370
    25
100
AcDbLine
 10
-58.023657781
 20
9.2983454313
 30
0.0
 11
-57.2845972323
 21
9.8654465361
 31
0.0
  0
LINE
  5
779
330
1F
100
AcDbEntity
  8
0
  6
Continuous
 62
     7
370
    25
100
AcDbLine
 10
-57.2845972323
 20
9.8654465361
 30
0.0
 11
-56.7174961275
 21
10.6045070849
 31
0.0
  0
LINE
  5
77A
330
1F
100
AcDbEntity
  8
0
  6
Continuous
 62
     7
370
    25
100
AcDbLine
 10
-56.7174961275
 20
10.6045070849
 30
0.0
 11
-56.3610014697
 21
11.4651613225
 31
0.0
  0
LINE
  5
77B
330
1F
100
AcDbEntity
  8
0
  6
Continuous
 62
     7
370
    25
100
AcDbLine
 10
-56.3610014697
 20
11.4651613225
 30
0.0
 11
-56.2394077808
 21
12.3887570851
 31
0.0
  0
LINE
  5
77C
330
1F
100
AcDbEntity
  8
0
  6
Continuous
 62
     7
370
    25
100
AcDbLine
 10
-56.2394077808
 20
12.3887570851
 30
0.0
 11
-56.3610014697
 21
13.3123528476
 31
0.0
  0
LINE
  5
77D
330
1F
100
AcDbEntity
  8
0
  6
Continuous
 62
     7
370
    25
100
AcDbLine
 10
-56.3610014697
 20
13.3123528476
 30
0.0
 11
-56.7174961275
 21
14.1730070853
 31
0.0
  0
LINE
  5
77E
330
1F
100
AcDbEntity
  8
0
  6
Continuous
 62
     7
370
    25
100
AcDbLine
 10
-32.4278809091
 20
201.6605233436
 30
0.0
 11
-32.1574095907
 21
201.9689367729
 31
0.0
  0
LINE
  5
77F
330
1F
100
AcDbEntity
  8
0
  6
Continuous
 62
     7
370
    25
100
AcDbLine
 10
-32.1574095907
 20
201.9689367729
 30
0.0
 11
-31.9295082225
 21
202.310015274
 31
0.0
  0
LINE
  5
780
330
1F
100
AcDbEntity
  8
0
  6
Continuous
 62
     7
370
    25
100
AcDbLine
 10
-31.9295082225
 20
202.310015274
 30
0.0
 11
-31.74807626
 21
202.6779228989
 31
0.0
  0
LINE
  5
781
330
1F
100
AcDbEntity
  8
0
  6
Continuous
 62
     7
370
    25
100
AcDbLine
 10
-31.74807626
 20
202.6779228989
 30
0.0
 11
-31.6162180545
 21
203.0663646464
 31
0.0
  0
LINE
  5
782
330
1F
100
AcDbEntity
  8
0
  6
Continuous
 62
     7
370
    25
100
AcDbLine
 10
-31.6162180545
 20
203.0663646464
 30
0.0
 11
-31.5361897365
 21
203.4686941703
 31
0.0
  0
LINE
  5
783
330
1F
100
AcDbEntity
  8
0
  6
Continuous
 62
     7
370
    25
100
AcDbLine
 10
-31.5361897365
 20
203.4686941703
 30
0.0
 11
-31.5093606125
 21
203.878027501
 31
0.0
  0
LINE
  5
784
330
1F
100
AcDbEntity
  8
0
  6
Continuous
 62
     7
370
    25
100
AcDbLine
 10
-31.5093606125
 20
203.878027501
 30
0.0
 11
-31.5093606125
 21
213.5788168874
 31
0.0
  0
LINE
  5
785
330
1F
100
AcDbEntity
  8
0
  6
Continuous
 62
     7
370
    25
100
AcDbLine
 10
-31.5093606125
 20
213.5788168874
 30
0.0
 11
-31.5361897364
 21
213.9881502181
 31
0.0
  0
LINE
  5
786
330
1F
100
AcDbEntity
  8
0
  6
Continuous
 62
     7
370
    25
100
AcDbLine
 10
-31.5361897364
 20
213.9881502181
 30
0.0
 11
-31.6162180545
 21
214.390479742
 31
0.0
  0
LINE
  5
787
330
1F
100
AcDbEntity
  8
0
  6
Continuous
 62
     7
370
    25
100
AcDbLine
 10
-31.6162180545
 20
214.390479742
 30
0.0
 11
-31.74807626
 21
214.7789214894
 31
0.0
  0
LINE
  5
788
330
1F
100
AcDbEntity
  8
0
  6
Continuous
 62
     7
370
    25
100
AcDbLine
 10
-31.74807626
 20
214.7789214894
 30
0.0
 11
-31.9295082225
 21
215.1468291144
 31
0.0
  0
LINE
  5
789
330
1F
100
AcDbEntity
  8
0
  6
Continuous
 62
     7
370
    25
100
AcDbLine
 10
-31.9295082225
 20
215.1468291144
 30
0.0
 11
-32.1574095907
 21
215.4879076154
 31
0.0
  0
LINE
  5
78A
330
1F
100
AcDbEntity
  8
0
  6
Continuous
 62
     7
370
    25
100
AcDbLine
 10
-32.1574095907
 20
215.4879076154
 30
0.0
 11
-32.4278809091
 21
215.7963210448
 31
0.0
  0
LINE
  5
78B
330
1F
100
AcDbEntity
  8
0
  6
Continuous
 62
     7
370
    25
100
AcDbLine
 10
-32.4278809091
 20
215.7963210448
 30
0.0
 11
-32.7362943385
 21
216.0667923632
 31
0.0
  0
LINE
  5
78C
330
1F
100
AcDbEntity
  8
0
  6
Continuous
 62
     7
370
    25
100
AcDbLine
 10
-32.7362943385
 20
216.0667923632
 30
0.0
 11
-33.0773728395
 21
216.2946937315
 31
0.0
  0
LINE
  5
78D
330
1F
100
AcDbEntity
  8
0
  6
Continuous
 62
     7
370
    25
100
AcDbLine
 10
-33.0773728395
 20
216.2946937315
 30
0.0
 11
-33.4452804645
 21
216.4761256939
 31
0.0
  0
LINE
  5
78E
330
1F
100
AcDbEntity
  8
0
  6
Continuous
 62
     7
370
    25
100
AcDbLine
 10
-33.4452804645
 20
216.4761256939
 30
0.0
 11
-33.8337222119
 21
216.6079838994
 31
0.0
  0
LINE
  5
78F
330
1F
100
AcDbEntity
  8
0
  6
Continuous
 62
     7
370
    25
100
AcDbLine
 10
-33.8337222119
 20
216.6079838994
 30
0.0
 11
-34.2360517358
 21
216.6880122175
 31
0.0
  0
LINE
  5
790
330
1F
100
AcDbEntity
  8
0
  6
Continuous
 62
     7
370
    25
100
AcDbLine
 10
-34.2360517358
 20
216.6880122175
 30
0.0
 11
-34.6453850665
 21
216.7148413414
 31
0.0
  0
LINE
  5
791
330
1F
100
AcDbEntity
  8
0
  6
Continuous
 62
     7
370
    25
100
AcDbLine
 10
-34.6453850665
 20
216.7148413414
 30
0.0
 11
-58.3602447458
 21
216.7148413414
 31
0.0
  0
LINE
  5
792
330
1F
100
AcDbEntity
  8
0
  6
Continuous
 62
     7
370
    25
100
AcDbLine
 10
-58.3602447458
 20
216.7148413414
 30
0.0
 11
-59.2281285215
 21
216.6579572334
 31
0.0
  0
LINE
  5
793
330
1F
100
AcDbEntity
  8
0
  6
Continuous
 62
     7
370
    25
100
AcDbLine
 10
-59.2281285215
 20
216.6579572334
 30
0.0
 11
-60.0811625652
 21
216.4882782123
 31
0.0
  0
LINE
  5
794
330
1F
100
AcDbEntity
  8
0
  6
Continuous
 62
     7
370
    25
100
AcDbLine
 10
-60.0811625652
 20
216.4882782123
 30
0.0
 11
-60.9047512279
 21
216.2087075332
 31
0.0
  0
LINE
  5
795
330
1F
100
AcDbEntity
  8
0
  6
Continuous
 62
     7
370
    25
100
AcDbLine
 10
-60.9047512279
 20
216.2087075332
 30
0.0
 11
-61.6848026792
 21
215.824028728
 31
0.0
  0
LINE
  5
796
330
1F
100
AcDbEntity
  8
0
  6
Continuous
 62
     7
370
    25
100
AcDbLine
 10
-61.6848026792
 20
215.824028728
 30
0.0
 11
-62.4079700225
 21
215.3408237575
 31
0.0
  0
LINE
  5
797
330
1F
100
AcDbEntity
  8
0
  6
Continuous
 62
     7
370
    25
100
AcDbLine
 10
-62.4079700225
 20
215.3408237575
 30
0.0
 11
-63.0618796641
 21
214.7673603929
 31
0.0
  0
LINE
  5
798
330
1F
100
AcDbEntity
  8
0
  6
Continuous
 62
     7
370
    25
100
AcDbLine
 10
-63.0618796641
 20
214.7673603929
 30
0.0
 11
-63.6353430286
 21
214.1134507514
 31
0.0
  0
LINE
  5
799
330
1F
100
AcDbEntity
  8
0
  6
Continuous
 62
     7
370
    25
100
AcDbLine
 10
-63.6353430286
 20
214.1134507514
 30
0.0
 11
-64.1185479991
 21
213.390283408
 31
0.0
  0
LINE
  5
79A
330
1F
100
AcDbEntity
  8
0
  6
Continuous
 62
     7
370
    25
100
AcDbLine
 10
-64.1185479991
 20
213.390283408
 30
0.0
 11
-64.5032268044
 21
212.6102319568
 31
0.0
  0
LINE
  5
79B
330
1F
100
AcDbEntity
  8
0
  6
Continuous
 62
     7
370
    25
100
AcDbLine
 10
-64.5032268044
 20
212.6102319568
 30
0.0
 11
-64.7827974835
 21
211.7866432941
 31
0.0
  0
LINE
  5
79C
330
1F
100
AcDbEntity
  8
0
  6
Continuous
 62
     7
370
    25
100
AcDbLine
 10
-64.7827974835
 20
211.7866432941
 30
0.0
 11
-64.9524765045
 21
210.9336092504
 31
0.0
  0
LINE
  5
79D
330
1F
100
AcDbEntity
  8
0
  6
Continuous
 62
     7
370
    25
100
AcDbLine
 10
-64.9524765045
 20
210.9336092504
 30
0.0
 11
-65.0093606125
 21
210.0657254747
 31
0.0
  0
LINE
  5
79E
330
1F
100
AcDbEntity
  8
0
  6
Continuous
 62
     7
370
    25
100
AcDbLine
 10
-65.0093606125
 20
210.0657254747
 30
0.0
 11
-65.0093606125
 21
203.878027501
 31
0.0
  0
LINE
  5
79F
330
1F
100
AcDbEntity
  8
0
  6
Continuous
 62
     7
370
    25
100
AcDbLine
 10
-65.0093606125
 20
203.878027501
 30
0.0
 11
-64.9825314886
 21
203.4686941703
 31
0.0
  0
LINE
  5
7A0
330
1F
100
AcDbEntity
  8
0
  6
Continuous
 62
     7
370
    25
100
AcDbLine
 10
-64.9825314886
 20
203.4686941703
 30
0.0
 11
-64.9025031705
 21
203.0663646464
 31
0.0
  0
LINE
  5
7A1
330
1F
100
AcDbEntity
  8
0
  6
Continuous
 62
     7
370
    25
100
AcDbLine
 10
-64.9025031705
 20
203.0663646464
 30
0.0
 11
-64.770644965
 21
202.6779228989
 31
0.0
  0
LINE
  5
7A2
330
1F
100
AcDbEntity
  8
0
  6
Continuous
 62
     7
370
    25
100
AcDbLine
 10
-64.770644965
 20
202.6779228989
 30
0.0
 11
-64.5892130026
 21
202.310015274
 31
0.0
  0
LINE
  5
7A3
330
1F
100
AcDbEntity
  8
0
  6
Continuous
 62
     7
370
    25
100
AcDbLine
 10
-64.5892130026
 20
202.310015274
 30
0.0
 11
-64.3613116343
 21
201.9689367729
 31
0.0
  0
LINE
  5
7A4
330
1F
100
AcDbEntity
  8
0
  6
Continuous
 62
     7
370
    25
100
AcDbLine
 10
-64.3613116343
 20
201.9689367729
 30
0.0
 11
-64.0908403159
 21
201.6605233436
 31
0.0
  0
LINE
  5
7A5
330
1F
100
AcDbEntity
  8
0
  6
Continuous
 62
     7
370
    25
100
AcDbLine
 10
-64.0908403159
 20
201.6605233436
 30
0.0
 11
-63.7824268865
 21
201.3900520252
 31
0.0
  0
LINE
  5
7A6
330
1F
100
AcDbEntity
  8
0
  6
Continuous
 62
     7
370
    25
100
AcDbLine
 10
-63.7824268865
 20
201.3900520252
 30
0.0
 11
-63.4413483855
 21
201.1621506569
 31
0.0
  0
LINE
  5
7A7
330
1F
100
AcDbEntity
  8
0
  6
Continuous
 62
     7
370
    25
100
AcDbLine
 10
-63.4413483855
 20
201.1621506569
 30
0.0
 11
-63.0734407606
 21
200.9807186945
 31
0.0
  0
LINE
  5
7A8
330
1F
100
AcDbEntity
  8
0
  6
Continuous
 62
     7
370
    25
100
AcDbLine
 10
-63.0734407606
 20
200.9807186945
 30
0.0
 11
-62.6849990131
 21
200.848860489
 31
0.0
  0
LINE
  5
7A9
330
1F
100
AcDbEntity
  8
0
  6
Continuous
 62
     7
370
    25
100
AcDbLine
 10
-62.6849990131
 20
200.848860489
 30
0.0
 11
-62.2826694892
 21
200.7688321709
 31
0.0
  0
LINE
  5
7AA
330
1F
100
AcDbEntity
  8
0
  6
Continuous
 62
     7
370
    25
100
AcDbLine
 10
-62.2826694892
 20
200.7688321709
 30
0.0
 11
-61.8733361585
 21
200.742003047
 31
0.0
  0
LINE
  5
7AB
330
1F
100
AcDbEntity
  8
0
  6
Continuous
 62
     7
370
    25
100
AcDbLine
 10
-61.8733361585
 20
200.742003047
 30
0.0
 11
-34.6453850665
 21
200.742003047
 31
0.0
  0
LINE
  5
7AC
330
1F
100
AcDbEntity
  8
0
  6
Continuous
 62
     7
370
    25
100
AcDbLine
 10
-34.6453850665
 20
200.742003047
 30
0.0
 11
-34.2360517358
 21
200.7688321709
 31
0.0
  0
LINE
  5
7AD
330
1F
100
AcDbEntity
  8
0
  6
Continuous
 62
     7
370
    25
100
AcDbLine
 10
-34.2360517358
 20
200.7688321709
 30
0.0
 11
-33.8337222119
 21
200.848860489
 31
0.0
  0
LINE
  5
7AE
330
1F
100
AcDbEntity
  8
0
  6
Continuous
 62
     7
370
    25
100
AcDbLine
 10
-33.8337222119
 20
200.848860489
 30
0.0
 11
-33.4452804645
 21
200.9807186945
 31
0.0
  0
LINE
  5
7AF
330
1F
100
AcDbEntity
  8
0
  6
Continuous
 62
     7
370
    25
100
AcDbLine
 10
-33.4452804645
 20
200.9807186945
 30
0.0
 11
-33.0773728395
 21
201.1621506569
 31
0.0
  0
LINE
  5
7B0
330
1F
100
AcDbEntity
  8
0
  6
Continuous
 62
     7
370
    25
100
AcDbLine
 10
-33.0773728395
 20
201.1621506569
 30
0.0
 11
-32.7362943385
 21
201.3900520251
 31
0.0
  0
LINE
  5
7B1
330
1F
100
AcDbEntity
  8
0
  6
Continuous
 62
     7
370
    25
100
AcDbLine
 10
-32.7362943385
 20
201.3900520251
 30
0.0
 11
-32.4278809091
 21
201.6605233436
 31
0.0
  0
LINE
  5
7B2
330
1F
100
AcDbEntity
  8
0
  6
Continuous
 62
     7
370
    25
100
AcDbLine
 10
-23.0669132818
 20
218.7674525194
 30
0.0
 11
-23.2108556913
 21
218.6033176588
 31
0.0
  0
LINE
  5
7B3
330
1F
100
AcDbEntity
  8
0
  6
Continuous
 62
     7
370
    25
100
AcDbLine
 10
-23.2108556913
 20
218.6033176588
 30
0.0
 11
-23.3321427552
 21
218.42179874
 31
0.0
  0
LINE
  5
7B4
330
1F
100
AcDbEntity
  8
0
  6
Continuous
 62
     7
370
    25
100
AcDbLine
 10
-23.3321427552
 20
218.42179874
 30
0.0
 11
-23.4286992182
 21
218.2260016021
 31
0.0
  0
LINE
  5
7B5
330
1F
100
AcDbEntity
  8
0
  6
Continuous
 62
     7
370
    25
100
AcDbLine
 10
-23.4286992182
 20
218.2260016021
 30
0.0
 11
-23.4988729724
 21
218.0192763885
 31
0.0
  0
LINE
  5
7B6
330
1F
100
AcDbEntity
  8
0
  6
Continuous
 62
     7
370
    25
100
AcDbLine
 10
-23.4988729724
 20
218.0192763885
 30
0.0
 11
-23.5414633254
 21
217.8051602247
 31
0.0
  0
LINE
  5
7B7
330
1F
100
AcDbEntity
  8
0
  6
Continuous
 62
     7
370
    25
100
AcDbLine
 10
-23.5414633254
 20
217.8051602247
 30
0.0
 11
-23.5414633254
 21
215.6868705131
 31
0.0
  0
LINE
  5
7B8
330
1F
100
AcDbEntity
  8
0
  6
Continuous
 62
     7
370
    25
100
AcDbLine
 10
-23.5414633254
 20
215.6868705131
 30
0.0
 11
-23.4988729724
 21
215.4727543494
 31
0.0
  0
LINE
  5
7B9
330
1F
100
AcDbEntity
  8
0
  6
Continuous
 62
     7
370
    25
100
AcDbLine
 10
-23.4988729724
 20
215.4727543494
 30
0.0
 11
-23.4286992182
 21
215.2660291357
 31
0.0
  0
LINE
  5
7BA
330
1F
100
AcDbEntity
  8
0
  6
Continuous
 62
     7
370
    25
100
AcDbLine
 10
-23.4286992182
 20
215.2660291357
 30
0.0
 11
-23.3321427552
 21
215.0702319979
 31
0.0
  0
LINE
  5
7BB
330
1F
100
AcDbEntity
  8
0
  6
Continuous
 62
     7
370
    25
100
AcDbLine
 10
-23.3321427552
 20
215.0702319979
 30
0.0
 11
-23.2108556913
 21
214.8887130791
 31
0.0
  0
LINE
  5
7BC
330
1F
100
AcDbEntity
  8
0
  6
Continuous
 62
     7
370
    25
100
AcDbLine
 10
-23.2108556913
 20
214.8887130791
 30
0.0
 11
-23.0669132818
 21
214.7245782185
 31
0.0
  0
LINE
  5
7BD
330
1F
100
AcDbEntity
  8
0
  6
Continuous
 62
     7
370
    25
100
AcDbLine
 10
-23.0669132818
 20
214.7245782185
 30
0.0
 11
-22.9027784211
 21
214.5806358089
 31
0.0
  0
LINE
  5
7BE
330
1F
100
AcDbEntity
  8
0
  6
Continuous
 62
     7
370
    25
100
AcDbLine
 10
-22.9027784211
 20
214.5806358089
 30
0.0
 11
-22.7212595023
 21
214.459348745
 31
0.0
  0
LINE
  5
7BF
330
1F
100
AcDbEntity
  8
0
  6
Continuous
 62
     7
370
    25
100
AcDbLine
 10
-22.7212595023
 20
214.459348745
 30
0.0
 11
-22.5254623645
 21
214.362792282
 31
0.0
  0
LINE
  5
7C0
330
1F
100
AcDbEntity
  8
0
  6
Continuous
 62
     7
370
    25
100
AcDbLine
 10
-22.5254623645
 20
214.362792282
 30
0.0
 11
-22.3187371508
 21
214.2926185278
 31
0.0
  0
LINE
  5
7C1
330
1F
100
AcDbEntity
  8
0
  6
Continuous
 62
     7
370
    25
100
AcDbLine
 10
-22.3187371508
 20
214.2926185278
 30
0.0
 11
-22.1046209871
 21
214.2500281748
 31
0.0
  0
LINE
  5
7C2
330
1F
100
AcDbEntity
  8
0
  6
Continuous
 62
     7
370
    25
100
AcDbLine
 10
-22.1046209871
 20
214.2500281748
 30
0.0
 11
-21.1346421475
 21
214.24645862
 31
0.0
  0
LINE
  5
7C3
330
1F
100
AcDbEntity
  8
0
  6
Continuous
 62
     7
370
    25
100
AcDbLine
 10
-21.1346421475
 20
214.24645862
 30
0.0
 11
-13.2247056288
 21
214.2357499557
 31
0.0
  0
LINE
  5
7C4
330
1F
100
AcDbEntity
  8
0
  6
Continuous
 62
     7
370
    25
100
AcDbLine
 10
-13.2247056288
 20
214.2357499557
 30
0.0
 11
-12.7927459382
 21
214.2926185278
 31
0.0
  0
LINE
  5
7C5
330
1F
100
AcDbEntity
  8
0
  6
Continuous
 62
     7
370
    25
100
AcDbLine
 10
-12.7927459382
 20
214.2926185278
 30
0.0
 11
-12.5860207245
 21
214.362792282
 31
0.0
  0
LINE
  5
7C6
330
1F
100
AcDbEntity
  8
0
  6
Continuous
 62
     7
370
    25
100
AcDbLine
 10
-12.5860207245
 20
214.362792282
 30
0.0
 11
-12.3902235866
 21
214.459348745
 31
0.0
  0
LINE
  5
7C7
330
1F
100
AcDbEntity
  8
0
  6
Continuous
 62
     7
370
    25
100
AcDbLine
 10
-12.3902235866
 20
214.459348745
 30
0.0
 11
-12.2087046679
 21
214.5806358089
 31
0.0
  0
LINE
  5
7C8
330
1F
100
AcDbEntity
  8
0
  6
Continuous
 62
     7
370
    25
100
AcDbLine
 10
-12.2087046679
 20
214.5806358089
 30
0.0
 11
-12.0445698072
 21
214.7245782185
 31
0.0
  0
LINE
  5
7C9
330
1F
100
AcDbEntity
  8
0
  6
Continuous
 62
     7
370
    25
100
AcDbLine
 10
-12.0445698072
 20
214.7245782185
 30
0.0
 11
-11.9006273977
 21
214.8887130791
 31
0.0
  0
LINE
  5
7CA
330
1F
100
AcDbEntity
  8
0
  6
Continuous
 62
     7
370
    25
100
AcDbLine
 10
-11.9006273977
 20
214.8887130791
 30
0.0
 11
-11.7793403338
 21
215.0702319979
 31
0.0
  0
LINE
  5
7CB
330
1F
100
AcDbEntity
  8
0
  6
Continuous
 62
     7
370
    25
100
AcDbLine
 10
-11.7793403338
 20
215.0702319979
 30
0.0
 11
-11.6827838708
 21
215.2660291357
 31
0.0
  0
LINE
  5
7CC
330
1F
100
AcDbEntity
  8
0
  6
Continuous
 62
     7
370
    25
100
AcDbLine
 10
-11.6827838708
 20
215.2660291357
 30
0.0
 11
-11.6126101166
 21
215.4727543494
 31
0.0
  0
LINE
  5
7CD
330
1F
100
AcDbEntity
  8
0
  6
Continuous
 62
     7
370
    25
100
AcDbLine
 10
-11.6126101166
 20
215.4727543494
 30
0.0
 11
-11.5557415445
 21
215.90471404
 31
0.0
  0
LINE
  5
7CE
330
1F
100
AcDbEntity
  8
0
  6
Continuous
 62
     7
370
    25
100
AcDbLine
 10
-11.5557415445
 20
215.90471404
 30
0.0
 11
-11.5700197636
 21
217.8051602247
 31
0.0
  0
LINE
  5
7CF
330
1F
100
AcDbEntity
  8
0
  6
Continuous
 62
     7
370
    25
100
AcDbLine
 10
-11.5700197636
 20
217.8051602247
 30
0.0
 11
-11.6126101166
 21
218.0192763885
 31
0.0
  0
LINE
  5
7D0
330
1F
100
AcDbEntity
  8
0
  6
Continuous
 62
     7
370
    25
100
AcDbLine
 10
-11.6126101166
 20
218.0192763885
 30
0.0
 11
-11.6827838708
 21
218.2260016021
 31
0.0
  0
LINE
  5
7D1
330
1F
100
AcDbEntity
  8
0
  6
Continuous
 62
     7
370
    25
100
AcDbLine
 10
-11.6827838708
 20
218.2260016021
 30
0.0
 11
-11.7793403338
 21
218.42179874
 31
0.0
  0
LINE
  5
7D2
330
1F
100
AcDbEntity
  8
0
  6
Continuous
 62
     7
370
    25
100
AcDbLine
 10
-11.7793403338
 20
218.42179874
 30
0.0
 11
-11.9006273977
 21
218.6033176588
 31
0.0
  0
LINE
  5
7D3
330
1F
100
AcDbEntity
  8
0
  6
Continuous
 62
     7
370
    25
100
AcDbLine
 10
-11.9006273977
 20
218.6033176588
 30
0.0
 11
-12.0445698072
 21
218.7674525194
 31
0.0
  0
LINE
  5
7D4
330
1F
100
AcDbEntity
  8
0
  6
Continuous
 62
     7
370
    25
100
AcDbLine
 10
-12.0445698072
 20
218.7674525194
 30
0.0
 11
-12.2087046679
 21
218.911394929
 31
0.0
  0
LINE
  5
7D5
330
1F
100
AcDbEntity
  8
0
  6
Continuous
 62
     7
370
    25
100
AcDbLine
 10
-12.2087046679
 20
218.911394929
 30
0.0
 11
-12.3902235866
 21
219.0326819929
 31
0.0
  0
LINE
  5
7D6
330
1F
100
AcDbEntity
  8
0
  6
Continuous
 62
     7
370
    25
100
AcDbLine
 10
-12.3902235866
 20
219.0326819929
 30
0.0
 11
-12.5860207245
 21
219.1292384558
 31
0.0
  0
LINE
  5
7D7
330
1F
100
AcDbEntity
  8
0
  6
Continuous
 62
     7
370
    25
100
AcDbLine
 10
-12.5860207245
 20
219.1292384558
 30
0.0
 11
-12.7927459382
 21
219.19941221
 31
0.0
  0
LINE
  5
7D8
330
1F
100
AcDbEntity
  8
0
  6
Continuous
 62
     7
370
    25
100
AcDbLine
 10
-12.7927459382
 20
219.19941221
 30
0.0
 11
-13.0068621019
 21
219.242002563
 31
0.0
  0
LINE
  5
7D9
330
1F
100
AcDbEntity
  8
0
  6
Continuous
 62
     7
370
    25
100
AcDbLine
 10
-13.0068621019
 20
219.242002563
 30
0.0
 11
-22.1046209871
 21
219.242002563
 31
0.0
  0
LINE
  5
7DA
330
1F
100
AcDbEntity
  8
0
  6
Continuous
 62
     7
370
    25
100
AcDbLine
 10
-22.1046209871
 20
219.242002563
 30
0.0
 11
-22.3187371508
 21
219.19941221
 31
0.0
  0
LINE
  5
7DB
330
1F
100
AcDbEntity
  8
0
  6
Continuous
 62
     7
370
    25
100
AcDbLine
 10
-22.3187371508
 20
219.19941221
 30
0.0
 11
-22.5254623645
 21
219.1292384558
 31
0.0
  0
LINE
  5
7DC
330
1F
100
AcDbEntity
  8
0
  6
Continuous
 62
     7
370
    25
100
AcDbLine
 10
-22.5254623645
 20
219.1292384558
 30
0.0
 11
-22.7212595023
 21
219.0326819929
 31
0.0
  0
LINE
  5
7DD
330
1F
100
AcDbEntity
  8
0
  6
Continuous
 62
     7
370
    25
100
AcDbLine
 10
-22.7212595023
 20
219.0326819929
 30
0.0
 11
-22.9027784211
 21
218.911394929
 31
0.0
  0
LINE
  5
7DE
330
1F
100
AcDbEntity
  8
0
  6
Continuous
 62
     7
370
    25
100
AcDbLine
 10
-22.9027784211
 20
218.911394929
 30
0.0
 11
-23.0669132818
 21
218.7674525194
 31
0.0
  0
LINE
  5
7DF
330
1F
100
AcDbEntity
  8
0
  6
Continuous
 62
     7
370
    25
100
AcDbLine
 10
24.5691031301
 20
206.9418401765
 30
0.0
 11
24.9663996773
 21
207.4596071492
 31
0.0
  0
LINE
  5
7E0
330
1F
100
AcDbEntity
  8
0
  6
Continuous
 62
     7
370
    25
100
AcDbLine
 10
24.9663996773
 20
207.4596071492
 30
0.0
 11
25.2161507194
 21
208.0625595532
 31
0.0
  0
LINE
  5
7E1
330
1F
100
AcDbEntity
  8
0
  6
Continuous
 62
     7
370
    25
100
AcDbLine
 10
25.2161507194
 20
208.0625595532
 30
0.0
 11
25.3013361357
 21
208.7096071783
 31
0.0
  0
LINE
  5
7E2
330
1F
100
AcDbEntity
  8
0
  6
Continuous
 62
     7
370
    25
100
AcDbLine
 10
25.3013361357
 20
208.7096071783
 30
0.0
 11
25.2161506808
 21
209.3566547985
 31
0.0
  0
LINE
  5
7E3
330
1F
100
AcDbEntity
  8
0
  6
Continuous
 62
     7
370
    25
100
AcDbLine
 10
25.2161506808
 20
209.3566547985
 30
0.0
 11
24.9663996028
 21
209.9596071875
 31
0.0
  0
LINE
  5
7E4
330
1F
100
AcDbEntity
  8
0
  6
Continuous
 62
     7
370
    25
100
AcDbLine
 10
24.9663996028
 20
209.9596071875
 30
0.0
 11
24.5691030248
 21
210.4773741365
 31
0.0
  0
LINE
  5
7E5
330
1F
100
AcDbEntity
  8
0
  6
Continuous
 62
     7
370
    25
100
AcDbLine
 10
24.5691030248
 20
210.4773741365
 30
0.0
 11
24.051336052
 21
210.8746706837
 31
0.0
  0
LINE
  5
7E6
330
1F
100
AcDbEntity
  8
0
  6
Continuous
 62
     7
370
    25
100
AcDbLine
 10
24.051336052
 20
210.8746706837
 30
0.0
 11
23.4483836481
 21
211.1244217258
 31
0.0
  0
LINE
  5
7E7
330
1F
100
AcDbEntity
  8
0
  6
Continuous
 62
     7
370
    25
100
AcDbLine
 10
23.4483836481
 20
211.1244217258
 30
0.0
 11
22.8013360229
 21
211.2096071421
 31
0.0
  0
LINE
  5
7E8
330
1F
100
AcDbEntity
  8
0
  6
Continuous
 62
     7
370
    25
100
AcDbLine
 10
22.8013360229
 20
211.2096071421
 30
0.0
 11
22.1542884028
 21
211.1244216872
 31
0.0
  0
LINE
  5
7E9
330
1F
100
AcDbEntity
  8
0
  6
Continuous
 62
     7
370
    25
100
AcDbLine
 10
22.1542884028
 20
211.1244216872
 30
0.0
 11
21.5513360138
 21
210.8746706092
 31
0.0
  0
LINE
  5
7EA
330
1F
100
AcDbEntity
  8
0
  6
Continuous
 62
     7
370
    25
100
AcDbLine
 10
21.5513360138
 20
210.8746706092
 30
0.0
 11
21.0335690647
 21
210.4773740312
 31
0.0
  0
LINE
  5
7EB
330
1F
100
AcDbEntity
  8
0
  6
Continuous
 62
     7
370
    25
100
AcDbLine
 10
21.0335690647
 20
210.4773740312
 30
0.0
 11
20.6362725176
 21
209.9596070584
 31
0.0
  0
LINE
  5
7EC
330
1F
100
AcDbEntity
  8
0
  6
Continuous
 62
     7
370
    25
100
AcDbLine
 10
20.6362725176
 20
209.9596070584
 30
0.0
 11
20.3865214755
 21
209.3566546545
 31
0.0
  0
LINE
  5
7ED
330
1F
100
AcDbEntity
  8
0
  6
Continuous
 62
     7
370
    25
100
AcDbLine
 10
20.3865214755
 20
209.3566546545
 30
0.0
 11
20.3013360592
 21
208.7096070293
 31
0.0
  0
LINE
  5
7EE
330
1F
100
AcDbEntity
  8
0
  6
Continuous
 62
     7
370
    25
100
AcDbLine
 10
20.3013360592
 20
208.7096070293
 30
0.0
 11
20.386521514
 21
208.0625594092
 31
0.0
  0
LINE
  5
7EF
330
1F
100
AcDbEntity
  8
0
  6
Continuous
 62
     7
370
    25
100
AcDbLine
 10
20.386521514
 20
208.0625594092
 30
0.0
 11
20.6362725921
 21
207.4596070202
 31
0.0
  0
LINE
  5
7F0
330
1F
100
AcDbEntity
  8
0
  6
Continuous
 62
     7
370
    25
100
AcDbLine
 10
20.6362725921
 20
207.4596070202
 30
0.0
 11
21.0335691701
 21
206.9418400711
 31
0.0
  0
LINE
  5
7F1
330
1F
100
AcDbEntity
  8
0
  6
Continuous
 62
     7
370
    25
100
AcDbLine
 10
21.0335691701
 20
206.9418400711
 30
0.0
 11
21.5513361428
 21
206.544543524
 31
0.0
  0
LINE
  5
7F2
330
1F
100
AcDbEntity
  8
0
  6
Continuous
 62
     7
370
    25
100
AcDbLine
 10
21.5513361428
 20
206.544543524
 30
0.0
 11
22.1542885467
 21
206.2947924819
 31
0.0
  0
LINE
  5
7F3
330
1F
100
AcDbEntity
  8
0
  6
Continuous
 62
     7
370
    25
100
AcDbLine
 10
22.1542885467
 20
206.2947924819
 30
0.0
 11
22.8013361719
 21
206.2096070656
 31
0.0
  0
LINE
  5
7F4
330
1F
100
AcDbEntity
  8
0
  6
Continuous
 62
     7
370
    25
100
AcDbLine
 10
22.8013361719
 20
206.2096070656
 30
0.0
 11
23.448383792
 21
206.2947925204
 31
0.0
  0
LINE
  5
7F5
330
1F
100
AcDbEntity
  8
0
  6
Continuous
 62
     7
370
    25
100
AcDbLine
 10
23.448383792
 20
206.2947925204
 30
0.0
 11
24.0513361811
 21
206.5445435985
 31
0.0
  0
LINE
  5
7F6
330
1F
100
AcDbEntity
  8
0
  6
Continuous
 62
     7
370
    25
100
AcDbLine
 10
24.0513361811
 20
206.5445435985
 30
0.0
 11
24.5691031301
 21
206.9418401765
 31
0.0
  0
LINE
  5
7F7
330
1F
100
AcDbEntity
  8
0
  6
Continuous
 62
     7
370
    25
100
AcDbLine
 10
-18.2029012809
 20
171.1536636648
 30
0.0
 11
-18.8058448192
 21
170.9039315531
 31
0.0
  0
LINE
  5
7F8
330
1F
100
AcDbEntity
  8
0
  6
Continuous
 62
     7
370
    25
100
AcDbLine
 10
-18.8058448192
 20
170.9039315531
 30
0.0
 11
-19.3236223923
 21
170.506625848
 31
0.0
  0
LINE
  5
7F9
330
1F
100
AcDbEntity
  8
0
  6
Continuous
 62
     7
370
    25
100
AcDbLine
 10
-19.3236223923
 20
170.506625848
 30
0.0
 11
-19.7209026974
 21
169.9888736749
 31
0.0
  0
LINE
  5
7FA
330
1F
100
AcDbEntity
  8
0
  6
Continuous
 62
     7
370
    25
100
AcDbLine
 10
-19.7209026974
 20
169.9888736749
 30
0.0
 11
-19.9706602091
 21
169.3859047366
 31
0.0
  0
LINE
  5
7FB
330
1F
100
AcDbEntity
  8
0
  6
Continuous
 62
     7
370
    25
100
AcDbLine
 10
-19.9706602091
 20
169.3859047366
 30
0.0
 11
-20.0558515744
 21
168.7388669197
 31
0.0
  0
LINE
  5
7FC
330
1F
100
AcDbEntity
  8
0
  6
Continuous
 62
     7
370
    25
100
AcDbLine
 10
-20.0558515744
 20
168.7388669197
 30
0.0
 11
-19.9706602091
 21
168.0918291029
 31
0.0
  0
LINE
  5
7FD
330
1F
100
AcDbEntity
  8
0
  6
Continuous
 62
     7
370
    25
100
AcDbLine
 10
-19.9706602091
 20
168.0918291029
 30
0.0
 11
-19.7209026974
 21
167.4888601646
 31
0.0
  0
LINE
  5
7FE
330
1F
100
AcDbEntity
  8
0
  6
Continuous
 62
     7
370
    25
100
AcDbLine
 10
-19.7209026974
 20
167.4888601646
 30
0.0
 11
-19.3236223923
 21
166.9711079915
 31
0.0
  0
LINE
  5
7FF
330
1F
100
AcDbEntity
  8
0
  6
Continuous
 62
     7
370
    25
100
AcDbLine
 10
-19.3236223923
 20
166.9711079915
 30
0.0
 11
-18.8058448192
 21
166.5738022864
 31
0.0
  0
LINE
  5
800
330
1F
100
AcDbEntity
  8
0
  6
Continuous
 62
     7
370
    25
100
AcDbLine
 10
-18.8058448192
 20
166.5738022864
 30
0.0
 11
-18.2029012809
 21
166.3240447747
 31
0.0
  0
LINE
  5
801
330
1F
100
AcDbEntity
  8
0
  6
Continuous
 62
     7
370
    25
100
AcDbLine
 10
-18.2029012809
 20
166.3240447747
 30
0.0
 11
-17.555863464
 21
166.2388788094
 31
0.0
  0
LINE
  5
802
330
1F
100
AcDbEntity
  8
0
  6
Continuous
 62
     7
370
    25
100
AcDbLine
 10
-17.555863464
 20
166.2388788094
 30
0.0
 11
3.4442701705
 21
166.2388788094
 31
0.0
  0
LINE
  5
803
330
1F
100
AcDbEntity
  8
0
  6
Continuous
 62
     7
370
    25
100
AcDbLine
 10
3.4442701705
 20
166.2388788094
 30
0.0
 11
4.0913079874
 21
166.3240447747
 31
0.0
  0
LINE
  5
804
330
1F
100
AcDbEntity
  8
0
  6
Continuous
 62
     7
370
    25
100
AcDbLine
 10
4.0913079874
 20
166.3240447747
 30
0.0
 11
4.6942515257
 21
166.5738022864
 31
0.0
  0
LINE
  5
805
330
1F
100
AcDbEntity
  8
0
  6
Continuous
 62
     7
370
    25
100
AcDbLine
 10
4.6942515257
 20
166.5738022864
 30
0.0
 11
5.2120290988
 21
166.9711079915
 31
0.0
  0
LINE
  5
806
330
1F
100
AcDbEntity
  8
0
  6
Continuous
 62
     7
370
    25
100
AcDbLine
 10
5.2120290988
 20
166.9711079915
 30
0.0
 11
5.6093094039
 21
167.4888601646
 31
0.0
  0
LINE
  5
807
330
1F
100
AcDbEntity
  8
0
  6
Continuous
 62
     7
370
    25
100
AcDbLine
 10
5.6093094039
 20
167.4888601646
 30
0.0
 11
5.8590669156
 21
168.0918291029
 31
0.0
  0
LINE
  5
808
330
1F
100
AcDbEntity
  8
0
  6
Continuous
 62
     7
370
    25
100
AcDbLine
 10
5.8590669156
 20
168.0918291029
 30
0.0
 11
5.9442582809
 21
168.7388669197
 31
0.0
  0
LINE
  5
809
330
1F
100
AcDbEntity
  8
0
  6
Continuous
 62
     7
370
    25
100
AcDbLine
 10
5.9442582809
 20
168.7388669197
 30
0.0
 11
5.8590669156
 21
169.3859047366
 31
0.0
  0
LINE
  5
80A
330
1F
100
AcDbEntity
  8
0
  6
Continuous
 62
     7
370
    25
100
AcDbLine
 10
5.8590669156
 20
169.3859047366
 30
0.0
 11
5.6093094039
 21
169.9888736749
 31
0.0
  0
LINE
  5
80B
330
1F
100
AcDbEntity
  8
0
  6
Continuous
 62
     7
370
    25
100
AcDbLine
 10
5.6093094039
 20
169.9888736749
 30
0.0
 11
5.2120290988
 21
170.506625848
 31
0.0
  0
LINE
  5
80C
330
1F
100
AcDbEntity
  8
0
  6
Continuous
 62
     7
370
    25
100
AcDbLine
 10
5.2120290988
 20
170.506625848
 30
0.0
 11
4.6942515257
 21
170.9039315531
 31
0.0
  0
LINE
  5
80D
330
1F
100
AcDbEntity
  8
0
  6
Continuous
 62
     7
370
    25
100
AcDbLine
 10
4.6942515257
 20
170.9039315531
 30
0.0
 11
4.0913079874
 21
171.1536636648
 31
0.0
  0
LINE
  5
80E
330
1F
100
AcDbEntity
  8
0
  6
Continuous
 62
     7
370
    25
100
AcDbLine
 10
4.0913079874
 20
171.1536636648
 30
0.0
 11
3.4442701705
 21
171.2388550301
 31
0.0
  0
LINE
  5
80F
330
1F
100
AcDbEntity
  8
0
  6
Continuous
 62
     7
370
    25
100
AcDbLine
 10
3.4442701705
 20
171.2388550301
 30
0.0
 11
-17.555863464
 21
171.2388550301
 31
0.0
  0
LINE
  5
810
330
1F
100
AcDbEntity
  8
0
  6
Continuous
 62
     7
370
    25
100
AcDbLine
 10
-17.555863464
 20
171.2388550301
 30
0.0
 11
-18.2029012809
 21
171.1536636648
 31
0.0
  0
LINE
  5
811
330
1F
100
AcDbEntity
  8
0
  6
Continuous
 62
     7
370
    25
100
AcDbLine
 10
-18.2029012809
 20
191.1536193475
 30
0.0
 11
-18.8058448192
 21
190.9038618358
 31
0.0
  0
LINE
  5
812
330
1F
100
AcDbEntity
  8
0
  6
Continuous
 62
     7
370
    25
100
AcDbLine
 10
-18.8058448192
 20
190.9038618358
 30
0.0
 11
-19.3236223923
 21
190.5065815306
 31
0.0
  0
LINE
  5
813
330
1F
100
AcDbEntity
  8
0
  6
Continuous
 62
     7
370
    25
100
AcDbLine
 10
-19.3236223923
 20
190.5065815306
 30
0.0
 11
-19.7209026974
 21
189.9888039576
 31
0.0
  0
LINE
  5
814
330
1F
100
AcDbEntity
  8
0
  6
Continuous
 62
     7
370
    25
100
AcDbLine
 10
-19.7209026974
 20
189.9888039576
 30
0.0
 11
-19.9706602091
 21
189.3858604192
 31
0.0
  0
LINE
  5
815
330
1F
100
AcDbEntity
  8
0
  6
Continuous
 62
     7
370
    25
100
AcDbLine
 10
-19.9706602091
 20
189.3858604192
 30
0.0
 11
-20.0558515744
 21
188.7388226023
 31
0.0
  0
LINE
  5
816
330
1F
100
AcDbEntity
  8
0
  6
Continuous
 62
     7
370
    25
100
AcDbLine
 10
-20.0558515744
 20
188.7388226023
 30
0.0
 11
-19.9706602091
 21
188.0917593856
 31
0.0
  0
LINE
  5
817
330
1F
100
AcDbEntity
  8
0
  6
Continuous
 62
     7
370
    25
100
AcDbLine
 10
-19.9706602091
 20
188.0917593856
 30
0.0
 11
-19.7209026974
 21
187.4888158472
 31
0.0
  0
LINE
  5
818
330
1F
100
AcDbEntity
  8
0
  6
Continuous
 62
     7
370
    25
100
AcDbLine
 10
-19.7209026974
 20
187.4888158472
 30
0.0
 11
-19.3236223923
 21
186.9710382742
 31
0.0
  0
LINE
  5
819
330
1F
100
AcDbEntity
  8
0
  6
Continuous
 62
     7
370
    25
100
AcDbLine
 10
-19.3236223923
 20
186.9710382742
 30
0.0
 11
-18.8058448192
 21
186.573757969
 31
0.0
  0
LINE
  5
81A
330
1F
100
AcDbEntity
  8
0
  6
Continuous
 62
     7
370
    25
100
AcDbLine
 10
-18.8058448192
 20
186.573757969
 30
0.0
 11
-18.2029012809
 21
186.3240004573
 31
0.0
  0
LINE
  5
81B
330
1F
100
AcDbEntity
  8
0
  6
Continuous
 62
     7
370
    25
100
AcDbLine
 10
-18.2029012809
 20
186.3240004573
 30
0.0
 11
-17.555863464
 21
186.2388090921
 31
0.0
  0
LINE
  5
81C
330
1F
100
AcDbEntity
  8
0
  6
Continuous
 62
     7
370
    25
100
AcDbLine
 10
-17.555863464
 20
186.2388090921
 30
0.0
 11
3.4442701705
 21
186.2388090921
 31
0.0
  0
LINE
  5
81D
330
1F
100
AcDbEntity
  8
0
  6
Continuous
 62
     7
370
    25
100
AcDbLine
 10
3.4442701705
 20
186.2388090921
 30
0.0
 11
4.0913079874
 21
186.3240004573
 31
0.0
  0
LINE
  5
81E
330
1F
100
AcDbEntity
  8
0
  6
Continuous
 62
     7
370
    25
100
AcDbLine
 10
4.0913079874
 20
186.3240004573
 30
0.0
 11
4.6942515257
 21
186.573757969
 31
0.0
  0
LINE
  5
81F
330
1F
100
AcDbEntity
  8
0
  6
Continuous
 62
     7
370
    25
100
AcDbLine
 10
4.6942515257
 20
186.573757969
 30
0.0
 11
5.2120290988
 21
186.9710382742
 31
0.0
  0
LINE
  5
820
330
1F
100
AcDbEntity
  8
0
  6
Continuous
 62
     7
370
    25
100
AcDbLine
 10
5.2120290988
 20
186.9710382742
 30
0.0
 11
5.6093094039
 21
187.4888158472
 31
0.0
  0
LINE
  5
821
330
1F
100
AcDbEntity
  8
0
  6
Continuous
 62
     7
370
    25
100
AcDbLine
 10
5.6093094039
 20
187.4888158472
 30
0.0
 11
5.8590669156
 21
188.0917593856
 31
0.0
  0
LINE
  5
822
330
1F
100
AcDbEntity
  8
0
  6
Continuous
 62
     7
370
    25
100
AcDbLine
 10
5.8590669156
 20
188.0917593856
 30
0.0
 11
5.9442582809
 21
188.7388226023
 31
0.0
  0
LINE
  5
823
330
1F
100
AcDbEntity
  8
0
  6
Continuous
 62
     7
370
    25
100
AcDbLine
 10
5.9442582809
 20
188.7388226023
 30
0.0
 11
5.8590669156
 21
189.3858604192
 31
0.0
  0
LINE
  5
824
330
1F
100
AcDbEntity
  8
0
  6
Continuous
 62
     7
370
    25
100
AcDbLine
 10
5.8590669156
 20
189.3858604192
 30
0.0
 11
5.6093094039
 21
189.9888039576
 31
0.0
  0
LINE
  5
825
330
1F
100
AcDbEntity
  8
0
  6
Continuous
 62
     7
370
    25
100
AcDbLine
 10
5.6093094039
 20
189.9888039576
 30
0.0
 11
5.2120290988
 21
190.5065815306
 31
0.0
  0
LINE
  5
826
330
1F
100
AcDbEntity
  8
0
  6
Continuous
 62
     7
370
    25
100
AcDbLine
 10
5.2120290988
 20
190.5065815306
 30
0.0
 11
4.6942515257
 21
190.9038618358
 31
0.0
  0
LINE
  5
827
330
1F
100
AcDbEntity
  8
0
  6
Continuous
 62
     7
370
    25
100
AcDbLine
 10
4.6942515257
 20
190.9038618358
 30
0.0
 11
4.0913079874
 21
191.1536193475
 31
0.0
  0
LINE
  5
828
330
1F
100
AcDbEntity
  8
0
  6
Continuous
 62
     7
370
    25
100
AcDbLine
 10
4.0913079874
 20
191.1536193475
 30
0.0
 11
3.4442701705
 21
191.2388107127
 31
0.0
  0
LINE
  5
829
330
1F
100
AcDbEntity
  8
0
  6
Continuous
 62
     7
370
    25
100
AcDbLine
 10
3.4442701705
 20
191.2388107127
 30
0.0
 11
-17.555863464
 21
191.2388107127
 31
0.0
  0
LINE
  5
82A
330
1F
100
AcDbEntity
  8
0
  6
Continuous
 62
     7
370
    25
100
AcDbLine
 10
-17.555863464
 20
191.2388107127
 30
0.0
 11
-18.2029012809
 21
191.1536193475
 31
0.0
  0
LINE
  5
82B
330
1F
100
AcDbEntity
  8
0
  6
Continuous
 62
     7
370
    25
100
AcDbLine
 10
4.0913079874
 20
206.3240193644
 30
0.0
 11
4.6942515257
 21
206.5737768761
 31
0.0
  0
LINE
  5
82C
330
1F
100
AcDbEntity
  8
0
  6
Continuous
 62
     7
370
    25
100
AcDbLine
 10
4.6942515257
 20
206.5737768761
 30
0.0
 11
5.2120290988
 21
206.9710571812
 31
0.0
  0
LINE
  5
82D
330
1F
100
AcDbEntity
  8
0
  6
Continuous
 62
     7
370
    25
100
AcDbLine
 10
5.2120290988
 20
206.9710571812
 30
0.0
 11
5.6093094039
 21
207.4888347543
 31
0.0
  0
LINE
  5
82E
330
1F
100
AcDbEntity
  8
0
  6
Continuous
 62
     7
370
    25
100
AcDbLine
 10
5.6093094039
 20
207.4888347543
 30
0.0
 11
5.8590669156
 21
208.0917782927
 31
0.0
  0
LINE
  5
82F
330
1F
100
AcDbEntity
  8
0
  6
Continuous
 62
     7
370
    25
100
AcDbLine
 10
5.8590669156
 20
208.0917782927
 30
0.0
 11
5.9442582809
 21
208.7388415094
 31
0.0
  0
LINE
  5
830
330
1F
100
AcDbEntity
  8
0
  6
Continuous
 62
     7
370
    25
100
AcDbLine
 10
5.9442582809
 20
208.7388415094
 30
0.0
 11
5.8590669156
 21
209.3858793263
 31
0.0
  0
LINE
  5
831
330
1F
100
AcDbEntity
  8
0
  6
Continuous
 62
     7
370
    25
100
AcDbLine
 10
5.8590669156
 20
209.3858793263
 30
0.0
 11
5.6093094039
 21
209.9888228646
 31
0.0
  0
LINE
  5
832
330
1F
100
AcDbEntity
  8
0
  6
Continuous
 62
     7
370
    25
100
AcDbLine
 10
5.6093094039
 20
209.9888228646
 30
0.0
 11
5.2120290988
 21
210.5066004377
 31
0.0
  0
LINE
  5
833
330
1F
100
AcDbEntity
  8
0
  6
Continuous
 62
     7
370
    25
100
AcDbLine
 10
5.2120290988
 20
210.5066004377
 30
0.0
 11
4.6942515257
 21
210.9038807428
 31
0.0
  0
LINE
  5
834
330
1F
100
AcDbEntity
  8
0
  6
Continuous
 62
     7
370
    25
100
AcDbLine
 10
4.6942515257
 20
210.9038807428
 30
0.0
 11
4.0913079874
 21
211.1536382545
 31
0.0
  0
LINE
  5
835
330
1F
100
AcDbEntity
  8
0
  6
Continuous
 62
     7
370
    25
100
AcDbLine
 10
4.0913079874
 20
211.1536382545
 30
0.0
 11
3.4442701705
 21
211.2388296198
 31
0.0
  0
LINE
  5
836
330
1F
100
AcDbEntity
  8
0
  6
Continuous
 62
     7
370
    25
100
AcDbLine
 10
3.4442701705
 20
211.2388296198
 30
0.0
 11
-17.555863464
 21
211.2388296198
 31
0.0
  0
LINE
  5
837
330
1F
100
AcDbEntity
  8
0
  6
Continuous
 62
     7
370
    25
100
AcDbLine
 10
-17.555863464
 20
211.2388296198
 30
0.0
 11
-18.2029012809
 21
211.1536382545
 31
0.0
  0
LINE
  5
838
330
1F
100
AcDbEntity
  8
0
  6
Continuous
 62
     7
370
    25
100
AcDbLine
 10
-18.2029012809
 20
211.1536382545
 30
0.0
 11
-18.8058448192
 21
210.9038807428
 31
0.0
  0
LINE
  5
839
330
1F
100
AcDbEntity
  8
0
  6
Continuous
 62
     7
370
    25
100
AcDbLine
 10
-18.8058448192
 20
210.9038807428
 30
0.0
 11
-19.3236223923
 21
210.5066004377
 31
0.0
  0
LINE
  5
83A
330
1F
100
AcDbEntity
  8
0
  6
Continuous
 62
     7
370
    25
100
AcDbLine
 10
-19.3236223923
 20
210.5066004377
 30
0.0
 11
-19.7209026974
 21
209.9888228646
 31
0.0
  0
LINE
  5
83B
330
1F
100
AcDbEntity
  8
0
  6
Continuous
 62
     7
370
    25
100
AcDbLine
 10
-19.7209026974
 20
209.9888228646
 30
0.0
 11
-19.9706602091
 21
209.3858793263
 31
0.0
  0
LINE
  5
83C
330
1F
100
AcDbEntity
  8
0
  6
Continuous
 62
     7
370
    25
100
AcDbLine
 10
-19.9706602091
 20
209.3858793263
 30
0.0
 11
-20.0558515744
 21
208.7388415094
 31
0.0
  0
LINE
  5
83D
330
1F
100
AcDbEntity
  8
0
  6
Continuous
 62
     7
370
    25
100
AcDbLine
 10
-20.0558515744
 20
208.7388415094
 30
0.0
 11
-19.9706602091
 21
208.0917782927
 31
0.0
  0
LINE
  5
83E
330
1F
100
AcDbEntity
  8
0
  6
Continuous
 62
     7
370
    25
100
AcDbLine
 10
-19.9706602091
 20
208.0917782927
 30
0.0
 11
-19.7209026974
 21
207.4888347543
 31
0.0
  0
LINE
  5
83F
330
1F
100
AcDbEntity
  8
0
  6
Continuous
 62
     7
370
    25
100
AcDbLine
 10
-19.7209026974
 20
207.4888347543
 30
0.0
 11
-19.3236223923
 21
206.9710571812
 31
0.0
  0
LINE
  5
840
330
1F
100
AcDbEntity
  8
0
  6
Continuous
 62
     7
370
    25
100
AcDbLine
 10
-19.3236223923
 20
206.9710571812
 30
0.0
 11
-18.8058448192
 21
206.5737768761
 31
0.0
  0
LINE
  5
841
330
1F
100
AcDbEntity
  8
0
  6
Continuous
 62
     7
370
    25
100
AcDbLine
 10
-18.8058448192
 20
206.5737768761
 30
0.0
 11
-18.2029012809
 21
206.3240193644
 31
0.0
  0
LINE
  5
842
330
1F
100
AcDbEntity
  8
0
  6
Continuous
 62
     7
370
    25
100
AcDbLine
 10
-18.2029012809
 20
206.3240193644
 30
0.0
 11
-17.555863464
 21
206.2388279992
 31
0.0
  0
LINE
  5
843
330
1F
100
AcDbEntity
  8
0
  6
Continuous
 62
     7
370
    25
100
AcDbLine
 10
-17.555863464
 20
206.2388279992
 30
0.0
 11
3.4442701705
 21
206.2388279992
 31
0.0
  0
LINE
  5
844
330
1F
100
AcDbEntity
  8
0
  6
Continuous
 62
     7
370
    25
100
AcDbLine
 10
3.4442701705
 20
206.2388279992
 30
0.0
 11
4.0913079874
 21
206.3240193644
 31
0.0
  0
LINE
  5
845
330
1F
100
AcDbEntity
  8
0
  6
Continuous
 62
     7
370
    25
100
AcDbLine
 10
-64.8000400423
 20
190.0089791774
 30
0.0
 11
-64.8965965053
 21
189.8131820395
 31
0.0
  0
LINE
  5
846
330
1F
100
AcDbEntity
  8
0
  6
Continuous
 62
     7
370
    25
100
AcDbLine
 10
-64.8965965053
 20
189.8131820395
 30
0.0
 11
-64.9667702595
 21
189.6064568258
 31
0.0
  0
LINE
  5
847
330
1F
100
AcDbEntity
  8
0
  6
Continuous
 62
     7
370
    25
100
AcDbLine
 10
-64.9667702595
 20
189.6064568258
 30
0.0
 11
-65.0093606125
 21
189.3923406621
 31
0.0
  0
LINE
  5
848
330
1F
100
AcDbEntity
  8
0
  6
Continuous
 62
     7
370
    25
100
AcDbLine
 10
-65.0093606125
 20
189.3923406621
 30
0.0
 11
-65.0093606125
 21
176.1429860201
 31
0.0
  0
LINE
  5
849
330
1F
100
AcDbEntity
  8
0
  6
Continuous
 62
     7
370
    25
100
AcDbLine
 10
-65.0093606125
 20
176.1429860201
 30
0.0
 11
-64.9667702595
 21
175.9288698564
 31
0.0
  0
LINE
  5
84A
330
1F
100
AcDbEntity
  8
0
  6
Continuous
 62
     7
370
    25
100
AcDbLine
 10
-64.9667702595
 20
175.9288698564
 30
0.0
 11
-64.8965965053
 21
175.7221446427
 31
0.0
  0
LINE
  5
84B
330
1F
100
AcDbEntity
  8
0
  6
Continuous
 62
     7
370
    25
100
AcDbLine
 10
-64.8965965053
 20
175.7221446427
 30
0.0
 11
-64.8000400423
 21
175.5263475049
 31
0.0
  0
LINE
  5
84C
330
1F
100
AcDbEntity
  8
0
  6
Continuous
 62
     7
370
    25
100
AcDbLine
 10
-64.8000400423
 20
175.5263475049
 30
0.0
 11
-64.6787529784
 21
175.3448285861
 31
0.0
  0
LINE
  5
84D
330
1F
100
AcDbEntity
  8
0
  6
Continuous
 62
     7
370
    25
100
AcDbLine
 10
-64.6787529784
 20
175.3448285861
 30
0.0
 11
-64.5348105689
 21
175.1806937255
 31
0.0
  0
LINE
  5
84E
330
1F
100
AcDbEntity
  8
0
  6
Continuous
 62
     7
370
    25
100
AcDbLine
 10
-64.5348105689
 20
175.1806937255
 30
0.0
 11
-64.3706757082
 21
175.0367513159
 31
0.0
  0
LINE
  5
84F
330
1F
100
AcDbEntity
  8
0
  6
Continuous
 62
     7
370
    25
100
AcDbLine
 10
-64.3706757082
 20
175.0367513159
 30
0.0
 11
-64.1891567895
 21
174.915464252
 31
0.0
  0
LINE
  5
850
330
1F
100
AcDbEntity
  8
0
  6
Continuous
 62
     7
370
    25
100
AcDbLine
 10
-64.1891567895
 20
174.915464252
 30
0.0
 11
-63.9933596516
 21
174.818907789
 31
0.0
  0
LINE
  5
851
330
1F
100
AcDbEntity
  8
0
  6
Continuous
 62
     7
370
    25
100
AcDbLine
 10
-63.9933596516
 20
174.818907789
 30
0.0
 11
-63.7866344379
 21
174.7487340348
 31
0.0
  0
LINE
  5
852
330
1F
100
AcDbEntity
  8
0
  6
Continuous
 62
     7
370
    25
100
AcDbLine
 10
-63.7866344379
 20
174.7487340348
 30
0.0
 11
-63.5725182742
 21
174.7061436818
 31
0.0
  0
LINE
  5
853
330
1F
100
AcDbEntity
  8
0
  6
Continuous
 62
     7
370
    25
100
AcDbLine
 10
-63.5725182742
 20
174.7061436818
 30
0.0
 11
-61.3868083226
 21
174.702574127
 31
0.0
  0
LINE
  5
854
330
1F
100
AcDbEntity
  8
0
  6
Continuous
 62
     7
370
    25
100
AcDbLine
 10
-61.3868083226
 20
174.702574127
 30
0.0
 11
-60.4168294831
 21
173.4821814342
 31
0.0
  0
LINE
  5
855
330
1F
100
AcDbEntity
  8
0
  6
Continuous
 62
     7
370
    25
100
AcDbLine
 10
-60.4168294831
 20
173.4821814342
 30
0.0
 11
-60.3319041494
 21
172.8350995786
 31
0.0
  0
LINE
  5
856
330
1F
100
AcDbEntity
  8
0
  6
Continuous
 62
     7
370
    25
100
AcDbLine
 10
-60.3319041494
 20
172.8350995786
 30
0.0
 11
-60.0823954684
 21
172.2320467962
 31
0.0
  0
LINE
  5
857
330
1F
100
AcDbEntity
  8
0
  6
Continuous
 62
     7
370
    25
100
AcDbLine
 10
-60.0823954684
 20
172.2320467962
 30
0.0
 11
-59.6853070443
 21
171.7141201377
 31
0.0
  0
LINE
  5
858
330
1F
100
AcDbEntity
  8
0
  6
Continuous
 62
     7
370
    25
100
AcDbLine
 10
-59.6853070443
 20
171.7141201377
 30
0.0
 11
-59.1676997969
 21
171.3166154489
 31
0.0
  0
LINE
  5
859
330
1F
100
AcDbEntity
  8
0
  6
Continuous
 62
     7
370
    25
100
AcDbLine
 10
-59.1676997969
 20
171.3166154489
 30
0.0
 11
-58.5648478047
 21
171.0666220174
 31
0.0
  0
LINE
  5
85A
330
1F
100
AcDbEntity
  8
0
  6
Continuous
 62
     7
370
    25
100
AcDbLine
 10
-58.5648478047
 20
171.0666220174
 30
0.0
 11
-57.9178344349
 21
170.9811764824
 31
0.0
  0
LINE
  5
85B
330
1F
100
AcDbEntity
  8
0
  6
Continuous
 62
     7
370
    25
100
AcDbLine
 10
-57.9178344349
 20
170.9811764824
 30
0.0
 11
-57.2707525792
 21
171.0661018161
 31
0.0
  0
LINE
  5
85C
330
1F
100
AcDbEntity
  8
0
  6
Continuous
 62
     7
370
    25
100
AcDbLine
 10
-57.2707525792
 20
171.0661018161
 30
0.0
 11
-56.6676997969
 21
171.3156104971
 31
0.0
  0
LINE
  5
85D
330
1F
100
AcDbEntity
  8
0
  6
Continuous
 62
     7
370
    25
100
AcDbLine
 10
-56.6676997969
 20
171.3156104971
 30
0.0
 11
-56.1497731383
 21
171.7126989212
 31
0.0
  0
LINE
  5
85E
330
1F
100
AcDbEntity
  8
0
  6
Continuous
 62
     7
370
    25
100
AcDbLine
 10
-56.1497731383
 20
171.7126989212
 30
0.0
 11
-55.7522684495
 21
172.2303061687
 31
0.0
  0
LINE
  5
85F
330
1F
100
AcDbEntity
  8
0
  6
Continuous
 62
     7
370
    25
100
AcDbLine
 10
-55.7522684495
 20
172.2303061687
 30
0.0
 11
-55.502275018
 21
172.8331581608
 31
0.0
  0
LINE
  5
860
330
1F
100
AcDbEntity
  8
0
  6
Continuous
 62
     7
370
    25
100
AcDbLine
 10
-55.502275018
 20
172.8331581608
 30
0.0
 11
-55.4168294831
 21
173.4801715306
 31
0.0
  0
LINE
  5
861
330
1F
100
AcDbEntity
  8
0
  6
Continuous
 62
     7
370
    25
100
AcDbLine
 10
-55.4168294831
 20
173.4801715306
 30
0.0
 11
-54.4468506435
 21
174.6934251139
 31
0.0
  0
LINE
  5
862
330
1F
100
AcDbEntity
  8
0
  6
Continuous
 62
     7
370
    25
100
AcDbLine
 10
-54.4468506435
 20
174.6934251139
 30
0.0
 11
-51.9768718039
 21
174.6918654627
 31
0.0
  0
LINE
  5
863
330
1F
100
AcDbEntity
  8
0
  6
Continuous
 62
     7
370
    25
100
AcDbLine
 10
-51.9768718039
 20
174.6918654627
 30
0.0
 11
-51.5449121133
 21
174.7487340348
 31
0.0
  0
LINE
  5
864
330
1F
100
AcDbEntity
  8
0
  6
Continuous
 62
     7
370
    25
100
AcDbLine
 10
-51.5449121133
 20
174.7487340348
 30
0.0
 11
-51.3381868997
 21
174.818907789
 31
0.0
  0
LINE
  5
865
330
1F
100
AcDbEntity
  8
0
  6
Continuous
 62
     7
370
    25
100
AcDbLine
 10
-51.3381868997
 20
174.818907789
 30
0.0
 11
-51.1423897618
 21
174.915464252
 31
0.0
  0
LINE
  5
866
330
1F
100
AcDbEntity
  8
0
  6
Continuous
 62
     7
370
    25
100
AcDbLine
 10
-51.1423897618
 20
174.915464252
 30
0.0
 11
-50.960870843
 21
175.0367513159
 31
0.0
  0
LINE
  5
867
330
1F
100
AcDbEntity
  8
0
  6
Continuous
 62
     7
370
    25
100
AcDbLine
 10
-50.960870843
 20
175.0367513159
 30
0.0
 11
-50.7967359824
 21
175.1806937255
 31
0.0
  0
LINE
  5
868
330
1F
100
AcDbEntity
  8
0
  6
Continuous
 62
     7
370
    25
100
AcDbLine
 10
-50.7967359824
 20
175.1806937255
 30
0.0
 11
-50.6527935728
 21
175.3448285861
 31
0.0
  0
LINE
  5
869
330
1F
100
AcDbEntity
  8
0
  6
Continuous
 62
     7
370
    25
100
AcDbLine
 10
-50.6527935728
 20
175.3448285861
 30
0.0
 11
-50.5315065089
 21
175.5263475049
 31
0.0
  0
LINE
  5
86A
330
1F
100
AcDbEntity
  8
0
  6
Continuous
 62
     7
370
    25
100
AcDbLine
 10
-50.5315065089
 20
175.5263475049
 30
0.0
 11
-50.4349500459
 21
175.7221446427
 31
0.0
  0
LINE
  5
86B
330
1F
100
AcDbEntity
  8
0
  6
Continuous
 62
     7
370
    25
100
AcDbLine
 10
-50.4349500459
 20
175.7221446427
 30
0.0
 11
-50.3647762917
 21
175.9288698564
 31
0.0
  0
LINE
  5
86C
330
1F
100
AcDbEntity
  8
0
  6
Continuous
 62
     7
370
    25
100
AcDbLine
 10
-50.3647762917
 20
175.9288698564
 30
0.0
 11
-50.3079077196
 21
176.360829547
 31
0.0
  0
LINE
  5
86D
330
1F
100
AcDbEntity
  8
0
  6
Continuous
 62
     7
370
    25
100
AcDbLine
 10
-50.3079077196
 20
176.360829547
 30
0.0
 11
-50.3137637934
 21
189.2189784322
 31
0.0
  0
LINE
  5
86E
330
1F
100
AcDbEntity
  8
0
  6
Continuous
 62
     7
370
    25
100
AcDbLine
 10
-50.3137637934
 20
189.2189784322
 30
0.0
 11
-50.3647762917
 21
189.6064568258
 31
0.0
  0
LINE
  5
86F
330
1F
100
AcDbEntity
  8
0
  6
Continuous
 62
     7
370
    25
100
AcDbLine
 10
-50.3647762917
 20
189.6064568258
 30
0.0
 11
-50.4349500459
 21
189.8131820395
 31
0.0
  0
LINE
  5
870
330
1F
100
AcDbEntity
  8
0
  6
Continuous
 62
     7
370
    25
100
AcDbLine
 10
-50.4349500459
 20
189.8131820395
 30
0.0
 11
-50.5315065089
 21
190.0089791774
 31
0.0
  0
LINE
  5
871
330
1F
100
AcDbEntity
  8
0
  6
Continuous
 62
     7
370
    25
100
AcDbLine
 10
-50.5315065089
 20
190.0089791774
 30
0.0
 11
-50.6527935728
 21
190.1904980962
 31
0.0
  0
LINE
  5
872
330
1F
100
AcDbEntity
  8
0
  6
Continuous
 62
     7
370
    25
100
AcDbLine
 10
-50.6527935728
 20
190.1904980962
 30
0.0
 11
-50.7967359823
 21
190.3546329568
 31
0.0
  0
LINE
  5
873
330
1F
100
AcDbEntity
  8
0
  6
Continuous
 62
     7
370
    25
100
AcDbLine
 10
-50.7967359823
 20
190.3546329568
 30
0.0
 11
-50.960870843
 21
190.4985753663
 31
0.0
  0
LINE
  5
874
330
1F
100
AcDbEntity
  8
0
  6
Continuous
 62
     7
370
    25
100
AcDbLine
 10
-50.960870843
 20
190.4985753663
 30
0.0
 11
-51.1423897618
 21
190.6198624302
 31
0.0
  0
LINE
  5
875
330
1F
100
AcDbEntity
  8
0
  6
Continuous
 62
     7
370
    25
100
AcDbLine
 10
-51.1423897618
 20
190.6198624302
 30
0.0
 11
-51.3381868996
 21
190.7164188932
 31
0.0
  0
LINE
  5
876
330
1F
100
AcDbEntity
  8
0
  6
Continuous
 62
     7
370
    25
100
AcDbLine
 10
-51.3381868996
 20
190.7164188932
 30
0.0
 11
-51.5449121133
 21
190.7865926474
 31
0.0
  0
LINE
  5
877
330
1F
100
AcDbEntity
  8
0
  6
Continuous
 62
     7
370
    25
100
AcDbLine
 10
-51.5449121133
 20
190.7865926474
 30
0.0
 11
-51.9768718039
 21
190.8434612195
 31
0.0
  0
LINE
  5
878
330
1F
100
AcDbEntity
  8
0
  6
Continuous
 62
     7
370
    25
100
AcDbLine
 10
-51.9768718039
 20
190.8434612195
 30
0.0
 11
-63.5725182742
 21
190.8291830004
 31
0.0
  0
LINE
  5
879
330
1F
100
AcDbEntity
  8
0
  6
Continuous
 62
     7
370
    25
100
AcDbLine
 10
-63.5725182742
 20
190.8291830004
 30
0.0
 11
-63.7866344379
 21
190.7865926474
 31
0.0
  0
LINE
  5
87A
330
1F
100
AcDbEntity
  8
0
  6
Continuous
 62
     7
370
    25
100
AcDbLine
 10
-63.7866344379
 20
190.7865926474
 30
0.0
 11
-63.9933596516
 21
190.7164188932
 31
0.0
  0
LINE
  5
87B
330
1F
100
AcDbEntity
  8
0
  6
Continuous
 62
     7
370
    25
100
AcDbLine
 10
-63.9933596516
 20
190.7164188932
 30
0.0
 11
-64.1891567895
 21
190.6198624302
 31
0.0
  0
LINE
  5
87C
330
1F
100
AcDbEntity
  8
0
  6
Continuous
 62
     7
370
    25
100
AcDbLine
 10
-64.1891567895
 20
190.6198624302
 30
0.0
 11
-64.3706757082
 21
190.4985753663
 31
0.0
  0
LINE
  5
87D
330
1F
100
AcDbEntity
  8
0
  6
Continuous
 62
     7
370
    25
100
AcDbLine
 10
-64.3706757082
 20
190.4985753663
 30
0.0
 11
-64.5348105689
 21
190.3546329568
 31
0.0
  0
LINE
  5
87E
330
1F
100
AcDbEntity
  8
0
  6
Continuous
 62
     7
370
    25
100
AcDbLine
 10
-64.5348105689
 20
190.3546329568
 30
0.0
 11
-64.6787529784
 21
190.1904980961
 31
0.0
  0
LINE
  5
87F
330
1F
100
AcDbEntity
  8
0
  6
Continuous
 62
     7
370
    25
100
AcDbLine
 10
-64.6787529784
 20
190.1904980961
 30
0.0
 11
-64.8000400423
 21
190.0089791774
 31
0.0
  0
LINE
  5
880
330
1F
100
AcDbEntity
  8
0
  6
Continuous
 62
     7
370
    25
100
AcDbLine
 10
-72.8265161816
 20
-0.8245210365
 30
0.0
 11
-72.4320059989
 21
-1.0190719286
 31
0.0
  0
LINE
  5
881
330
1F
100
AcDbEntity
  8
0
  6
Continuous
 62
     7
370
    25
100
AcDbLine
 10
-72.4320059989
 20
-1.0190719286
 30
0.0
 11
-72.0154769184
 21
-1.1604644989
 31
0.0
  0
LINE
  5
882
330
1F
100
AcDbEntity
  8
0
  6
Continuous
 62
     7
370
    25
100
AcDbLine
 10
-72.0154769184
 20
-1.1604644989
 30
0.0
 11
-71.5840558681
 21
-1.2462794813
 31
0.0
  0
LINE
  5
883
330
1F
100
AcDbEntity
  8
0
  6
Continuous
 62
     7
370
    25
100
AcDbLine
 10
-71.5840558681
 20
-1.2462794813
 30
0.0
 11
-71.1451245819
 21
-1.2750485578
 31
0.0
  0
LINE
  5
884
330
1F
100
AcDbEntity
  8
0
  6
Continuous
 62
     7
370
    25
100
AcDbLine
 10
-71.1451245819
 20
-1.2750485578
 30
0.0
 11
102.1693090191
 21
-1.2750485578
 31
0.0
  0
LINE
  5
885
330
1F
100
AcDbEntity
  8
0
  6
Continuous
 62
     7
370
    25
100
AcDbLine
 10
102.1693090191
 20
-1.2750485578
 30
0.0
 11
102.6082403053
 21
-1.2462794813
 31
0.0
  0
LINE
  5
886
330
1F
100
AcDbEntity
  8
0
  6
Continuous
 62
     7
370
    25
100
AcDbLine
 10
102.6082403053
 20
-1.2462794813
 30
0.0
 11
103.0396613556
 21
-1.1604644989
 31
0.0
  0
LINE
  5
887
330
1F
100
AcDbEntity
  8
0
  6
Continuous
 62
     7
370
    25
100
AcDbLine
 10
103.0396613556
 20
-1.1604644989
 30
0.0
 11
103.4561904361
 21
-1.0190719286
 31
0.0
  0
LINE
  5
888
330
1F
100
AcDbEntity
  8
0
  6
Continuous
 62
     7
370
    25
100
AcDbLine
 10
103.4561904361
 20
-1.0190719286
 30
0.0
 11
103.8507006188
 21
-0.8245210365
 31
0.0
  0
LINE
  5
889
330
1F
100
AcDbEntity
  8
0
  6
Continuous
 62
     7
370
    25
100
AcDbLine
 10
103.8507006188
 20
-0.8245210365
 30
0.0
 11
104.216441725
 21
-0.5801406423
 31
0.0
  0
LINE
  5
88A
330
1F
100
AcDbEntity
  8
0
  6
Continuous
 62
     7
370
    25
100
AcDbLine
 10
104.216441725
 20
-0.5801406423
 30
0.0
 11
104.547155823
 21
-0.2901121623
 31
0.0
  0
LINE
  5
88B
330
1F
100
AcDbEntity
  8
0
  6
Continuous
 62
     7
370
    25
100
AcDbLine
 10
104.547155823
 20
-0.2901121623
 30
0.0
 11
104.837184303
 21
0.0406019357
 31
0.0
  0
LINE
  5
88C
330
1F
100
AcDbEntity
  8
0
  6
Continuous
 62
     7
370
    25
100
AcDbLine
 10
104.837184303
 20
0.0406019357
 30
0.0
 11
105.0815646971
 21
0.4063430419
 31
0.0
  0
LINE
  5
88D
330
1F
100
AcDbEntity
  8
0
  6
Continuous
 62
     7
370
    25
100
AcDbLine
 10
105.0815646971
 20
0.4063430419
 30
0.0
 11
105.2761155892
 21
0.8008532246
 31
0.0
  0
LINE
  5
88E
330
1F
100
AcDbEntity
  8
0
  6
Continuous
 62
     7
370
    25
100
AcDbLine
 10
105.2761155892
 20
0.8008532246
 30
0.0
 11
105.4175081595
 21
1.2173823051
 31
0.0
  0
LINE
  5
88F
330
1F
100
AcDbEntity
  8
0
  6
Continuous
 62
     7
370
    25
100
AcDbLine
 10
105.4175081595
 20
1.2173823051
 30
0.0
 11
105.503323142
 21
1.6488033553
 31
0.0
  0
LINE
  5
890
330
1F
100
AcDbEntity
  8
0
  6
Continuous
 62
     7
370
    25
100
AcDbLine
 10
105.503323142
 20
1.6488033553
 30
0.0
 11
105.5320922184
 21
2.0877346416
 31
0.0
  0
LINE
  5
891
330
1F
100
AcDbEntity
  8
0
  6
Continuous
 62
     7
370
    25
100
AcDbLine
 10
105.5320922184
 20
2.0877346416
 30
0.0
 11
105.5320922184
 21
111.4409322252
 31
0.0
  0
LINE
  5
892
330
1F
100
AcDbEntity
  8
0
  6
Continuous
 62
     7
370
    25
100
AcDbLine
 10
105.5320922184
 20
111.4409322252
 30
0.0
 11
105.4518462588
 21
113.8446862313
 31
0.0
  0
LINE
  5
893
330
1F
100
AcDbEntity
  8
0
  6
Continuous
 62
     7
370
    25
100
AcDbLine
 10
105.4518462588
 20
113.8446862313
 30
0.0
 11
105.3516225796
 21
115.0432170343
 31
0.0
  0
LINE
  5
894
330
1F
100
AcDbEntity
  8
0
  6
Continuous
 62
     7
370
    25
100
AcDbLine
 10
105.3516225796
 20
115.0432170343
 30
0.0
 11
105.211465707
 21
116.2377365706
 31
0.0
  0
LINE
  5
895
330
1F
100
AcDbEntity
  8
0
  6
Continuous
 62
     7
370
    25
100
AcDbLine
 10
105.211465707
 20
116.2377365706
 30
0.0
 11
105.0315317104
 21
117.426914702
 31
0.0
  0
LINE
  5
896
330
1F
100
AcDbEntity
  8
0
  6
Continuous
 62
     7
370
    25
100
AcDbLine
 10
105.0315317104
 20
117.426914702
 30
0.0
 11
104.8120209525
 21
118.6094272384
 31
0.0
  0
LINE
  5
897
330
1F
100
AcDbEntity
  8
0
  6
Continuous
 62
     7
370
    25
100
AcDbLine
 10
104.8120209525
 20
118.6094272384
 30
0.0
 11
104.5531778659
 21
119.7839574118
 31
0.0
  0
LINE
  5
898
330
1F
100
AcDbEntity
  8
0
  6
Continuous
 62
     7
370
    25
100
AcDbLine
 10
104.5531778659
 20
119.7839574118
 30
0.0
 11
104.2552906813
 21
120.9491973428
 31
0.0
  0
LINE
  5
899
330
1F
100
AcDbEntity
  8
0
  6
Continuous
 62
     7
370
    25
100
AcDbLine
 10
104.2552906813
 20
120.9491973428
 30
0.0
 11
103.9186911061
 21
122.1038494971
 31
0.0
  0
LINE
  5
89A
330
1F
100
AcDbEntity
  8
0
  6
Continuous
 62
     7
370
    25
100
AcDbLine
 10
103.9186911061
 20
122.1038494971
 30
0.0
 11
103.5437539555
 21
123.2466281304
 31
0.0
  0
LINE
  5
89B
330
1F
100
AcDbEntity
  8
0
  6
Continuous
 62
     7
370
    25
100
AcDbLine
 10
103.5437539555
 20
123.2466281304
 30
0.0
 11
102.6805791742
 21
125.4914893807
 31
0.0
  0
LINE
  5
89C
330
1F
100
AcDbEntity
  8
0
  6
Continuous
 62
     7
370
    25
100
AcDbLine
 10
102.6805791742
 20
125.4914893807
 30
0.0
 11
44.5886875624
 21
220.473251164
 31
0.0
  0
LINE
  5
89D
330
1F
100
AcDbEntity
  8
0
  6
Continuous
 62
     7
370
    25
100
AcDbLine
 10
44.5886875624
 20
220.473251164
 30
0.0
 11
44.0179967865
 21
221.3217567977
 31
0.0
  0
LINE
  5
89E
330
1F
100
AcDbEntity
  8
0
  6
Continuous
 62
     7
370
    25
100
AcDbLine
 10
44.0179967865
 20
221.3217567977
 30
0.0
 11
43.3772464625
 21
222.1186813827
 31
0.0
  0
LINE
  5
89F
330
1F
100
AcDbEntity
  8
0
  6
Continuous
 62
     7
370
    25
100
AcDbLine
 10
43.3772464625
 20
222.1186813827
 30
0.0
 11
42.671074667
 21
222.8582563738
 31
0.0
  0
LINE
  5
8A0
330
1F
100
AcDbEntity
  8
0
  6
Continuous
 62
     7
370
    25
100
AcDbLine
 10
42.671074667
 20
222.8582563738
 30
0.0
 11
41.9045930307
 21
223.5351283508
 31
0.0
  0
LINE
  5
8A1
330
1F
100
AcDbEntity
  8
0
  6
Continuous
 62
     7
370
    25
100
AcDbLine
 10
41.9045930307
 20
223.5351283508
 30
0.0
 11
41.0833497376
 21
224.1443977703
 31
0.0
  0
LINE
  5
8A2
330
1F
100
AcDbEntity
  8
0
  6
Continuous
 62
     7
370
    25
100
AcDbLine
 10
41.0833497376
 20
224.1443977703
 30
0.0
 11
40.2132893642
 21
224.6816544303
 31
0.0
  0
LINE
  5
8A3
330
1F
100
AcDbEntity
  8
0
  6
Continuous
 62
     7
370
    25
100
AcDbLine
 10
40.2132893642
 20
224.6816544303
 30
0.0
 11
39.30070985
 21
225.1430093938
 31
0.0
  0
LINE
  5
8A4
330
1F
100
AcDbEntity
  8
0
  6
Continuous
 62
     7
370
    25
100
AcDbLine
 10
39.30070985
 20
225.1430093938
 30
0.0
 11
38.3522169097
 21
225.5251231389
 31
0.0
  0
LINE
  5
8A5
330
1F
100
AcDbEntity
  8
0
  6
Continuous
 62
     7
370
    25
100
AcDbLine
 10
38.3522169097
 20
225.5251231389
 30
0.0
 11
37.3746762175
 21
225.8252297321
 31
0.0
  0
LINE
  5
8A6
330
1F
100
AcDbEntity
  8
0
  6
Continuous
 62
     7
370
    25
100
AcDbLine
 10
37.3746762175
 20
225.8252297321
 30
0.0
 11
36.3751637103
 21
226.0411568492
 31
0.0
  0
LINE
  5
8A7
330
1F
100
AcDbEntity
  8
0
  6
Continuous
 62
     7
370
    25
100
AcDbLine
 10
36.3751637103
 20
226.0411568492
 30
0.0
 11
35.3609143677
 21
226.1713414999
 31
0.0
  0
LINE
  5
8A8
330
1F
100
AcDbEntity
  8
0
  6
Continuous
 62
     7
370
    25
100
AcDbLine
 10
35.3609143677
 20
226.1713414999
 30
0.0
 11
34.3392698426
 21
226.2148413414
 31
0.0
  0
LINE
  5
8A9
330
1F
100
AcDbEntity
  8
0
  6
Continuous
 62
     7
370
    25
100
AcDbLine
 10
34.3392698426
 20
226.2148413414
 30
0.0
 11
-64.843892463
 21
226.2148413414
 31
0.0
  0
LINE
  5
8AA
330
1F
100
AcDbEntity
  8
0
  6
Continuous
 62
     7
370
    25
100
AcDbLine
 10
-64.843892463
 20
226.2148413414
 30
0.0
 11
-66.1055026952
 21
226.1321506681
 31
0.0
  0
LINE
  5
8AB
330
1F
100
AcDbEntity
  8
0
  6
Continuous
 62
     7
370
    25
100
AcDbLine
 10
-66.1055026952
 20
226.1321506681
 30
0.0
 11
-67.3455262341
 21
225.8854935213
 31
0.0
  0
LINE
  5
8AC
330
1F
100
AcDbEntity
  8
0
  6
Continuous
 62
     7
370
    25
100
AcDbLine
 10
-67.3455262341
 20
225.8854935213
 30
0.0
 11
-68.5427457444
 21
225.4790903107
 31
0.0
  0
LINE
  5
8AD
330
1F
100
AcDbEntity
  8
0
  6
Continuous
 62
     7
370
    25
100
AcDbLine
 10
-68.5427457444
 20
225.4790903107
 30
0.0
 11
-69.6766762856
 21
224.9198947699
 31
0.0
  0
LINE
  5
8AE
330
1F
100
AcDbEntity
  8
0
  6
Continuous
 62
     7
370
    25
100
AcDbLine
 10
-69.6766762856
 20
224.9198947699
 30
0.0
 11
-70.7279158191
 21
224.2174749748
 31
0.0
  0
LINE
  5
8AF
330
1F
100
AcDbEntity
  8
0
  6
Continuous
 62
     7
370
    25
100
AcDbLine
 10
-70.7279158191
 20
224.2174749748
 30
0.0
 11
-71.6784771847
 21
223.38384963
 31
0.0
  0
LINE
  5
8B0
330
1F
100
AcDbEntity
  8
0
  6
Continuous
 62
     7
370
    25
100
AcDbLine
 10
-71.6784771847
 20
223.38384963
 30
0.0
 11
-72.512095869
 21
222.4332824233
 31
0.0
  0
LINE
  5
8B1
330
1F
100
AcDbEntity
  8
0
  6
Continuous
 62
     7
370
    25
100
AcDbLine
 10
-72.512095869
 20
222.4332824233
 30
0.0
 11
-73.2145082981
 21
221.382037968
 31
0.0
  0
LINE
  5
8B2
330
1F
100
AcDbEntity
  8
0
  6
Continuous
 62
     7
370
    25
100
AcDbLine
 10
-73.2145082981
 20
221.382037968
 30
0.0
 11
-73.7736958935
 21
220.2481035086
 31
0.0
  0
LINE
  5
8B3
330
1F
100
AcDbEntity
  8
0
  6
Continuous
 62
     7
370
    25
100
AcDbLine
 10
-73.7736958935
 20
220.2481035086
 30
0.0
 11
-74.1800907153
 21
219.0508811507
 31
0.0
  0
LINE
  5
8B4
330
1F
100
AcDbEntity
  8
0
  6
Continuous
 62
     7
370
    25
100
AcDbLine
 10
-74.1800907153
 20
219.0508811507
 30
0.0
 11
-74.4267391734
 21
217.8108558835
 31
0.0
  0
LINE
  5
8B5
330
1F
100
AcDbEntity
  8
0
  6
Continuous
 62
     7
370
    25
100
AcDbLine
 10
-74.4267391734
 20
217.8108558835
 30
0.0
 11
-74.5094210066
 21
216.549245072
 31
0.0
  0
LINE
  5
8B6
330
1F
100
AcDbEntity
  8
0
  6
Continuous
 62
     7
370
    25
100
AcDbLine
 10
-74.5094210066
 20
216.549245072
 30
0.0
 11
-74.5079077812
 21
2.0877346416
 31
0.0
  0
LINE
  5
8B7
330
1F
100
AcDbEntity
  8
0
  6
Continuous
 62
     7
370
    25
100
AcDbLine
 10
-74.5079077812
 20
2.0877346416
 30
0.0
 11
-74.4791387048
 21
1.6488033553
 31
0.0
  0
LINE
  5
8B8
330
1F
100
AcDbEntity
  8
0
  6
Continuous
 62
     7
370
    25
100
AcDbLine
 10
-74.4791387048
 20
1.6488033553
 30
0.0
 11
-74.3933237224
 21
1.2173823051
 31
0.0
  0
LINE
  5
8B9
330
1F
100
AcDbEntity
  8
0
  6
Continuous
 62
     7
370
    25
100
AcDbLine
 10
-74.3933237224
 20
1.2173823051
 30
0.0
 11
-74.251931152
 21
0.8008532246
 31
0.0
  0
LINE
  5
8BA
330
1F
100
AcDbEntity
  8
0
  6
Continuous
 62
     7
370
    25
100
AcDbLine
 10
-74.251931152
 20
0.8008532246
 30
0.0
 11
-74.0573802599
 21
0.4063430419
 31
0.0
  0
LINE
  5
8BB
330
1F
100
AcDbEntity
  8
0
  6
Continuous
 62
     7
370
    25
100
AcDbLine
 10
-74.0573802599
 20
0.4063430419
 30
0.0
 11
-73.8129998658
 21
0.0406019357
 31
0.0
  0
LINE
  5
8BC
330
1F
100
AcDbEntity
  8
0
  6
Continuous
 62
     7
370
    25
100
AcDbLine
 10
-73.8129998658
 20
0.0406019357
 30
0.0
 11
-73.5229713858
 21
-0.2901121623
 31
0.0
  0
LINE
  5
8BD
330
1F
100
AcDbEntity
  8
0
  6
Continuous
 62
     7
370
    25
100
AcDbLine
 10
-73.5229713858
 20
-0.2901121623
 30
0.0
 11
-73.1922572878
 21
-0.5801406423
 31
0.0
  0
LINE
  5
8BE
330
1F
100
AcDbEntity
  8
0
  6
Continuous
 62
     7
370
    25
100
AcDbLine
 10
-73.1922572878
 20
-0.5801406423
 30
0.0
 11
-72.8265161816
 21
-0.8245210365
 31
0.0
  0
LINE
  5
8BF
330
1F
100
AcDbEntity
  8
0
  6
Continuous
 62
     7
370
    25
100
AcDbLine
 10
197.0128482558
 20
186.5445435985
 30
0.0
 11
196.4950813067
 21
186.9418401765
 31
0.0
  0
LINE
  5
8C0
330
1F
100
AcDbEntity
  8
0
  6
Continuous
 62
     7
370
    25
100
AcDbLine
 10
197.6158006448
 20
186.2947925204
 30
0.0
 11
197.0128482558
 21
186.5445435985
 31
0.0
  0
LINE
  5
8C1
330
1F
100
AcDbEntity
  8
0
  6
Continuous
 62
     7
370
    25
100
AcDbLine
 10
198.2628482649
 20
186.2096070656
 30
0.0
 11
197.6158006448
 21
186.2947925204
 31
0.0
  0
LINE
  5
8C2
330
1F
100
AcDbEntity
  8
0
  6
Continuous
 62
     7
370
    25
100
AcDbLine
 10
198.9098958901
 20
186.2947924819
 30
0.0
 11
198.2628482649
 21
186.2096070656
 31
0.0
  0
LINE
  5
8C3
330
1F
100
AcDbEntity
  8
0
  6
Continuous
 62
     7
370
    25
100
AcDbLine
 10
199.5128482941
 20
186.544543524
 30
0.0
 11
198.9098958901
 21
186.2947924819
 31
0.0
  0
LINE
  5
8C4
330
1F
100
AcDbEntity
  8
0
  6
Continuous
 62
     7
370
    25
100
AcDbLine
 10
200.0306152668
 20
186.9418400711
 30
0.0
 11
199.5128482941
 21
186.544543524
 31
0.0
  0
LINE
  5
8C5
330
1F
100
AcDbEntity
  8
0
  6
Continuous
 62
     7
370
    25
100
AcDbLine
 10
200.4279118448
 20
187.4596070202
 30
0.0
 11
200.0306152668
 21
186.9418400711
 31
0.0
  0
LINE
  5
8C6
330
1F
100
AcDbEntity
  8
0
  6
Continuous
 62
     7
370
    25
100
AcDbLine
 10
200.6776629228
 20
188.0625594092
 30
0.0
 11
200.4279118448
 21
187.4596070202
 31
0.0
  0
LINE
  5
8C7
330
1F
100
AcDbEntity
  8
0
  6
Continuous
 62
     7
370
    25
100
AcDbLine
 10
200.7628483777
 20
188.7096070293
 30
0.0
 11
200.6776629228
 21
188.0625594092
 31
0.0
  0
LINE
  5
8C8
330
1F
100
AcDbEntity
  8
0
  6
Continuous
 62
     7
370
    25
100
AcDbLine
 10
200.6776629614
 20
189.3566546545
 30
0.0
 11
200.7628483777
 21
188.7096070293
 31
0.0
  0
LINE
  5
8C9
330
1F
100
AcDbEntity
  8
0
  6
Continuous
 62
     7
370
    25
100
AcDbLine
 10
200.4279119193
 20
189.9596070584
 30
0.0
 11
200.6776629614
 21
189.3566546545
 31
0.0
  0
LINE
  5
8CA
330
1F
100
AcDbEntity
  8
0
  6
Continuous
 62
     7
370
    25
100
AcDbLine
 10
200.0306153722
 20
190.4773740312
 30
0.0
 11
200.4279119193
 21
189.9596070584
 31
0.0
  0
LINE
  5
8CB
330
1F
100
AcDbEntity
  8
0
  6
Continuous
 62
     7
370
    25
100
AcDbLine
 10
199.5128484231
 20
190.8746706092
 30
0.0
 11
200.0306153722
 21
190.4773740312
 31
0.0
  0
LINE
  5
8CC
330
1F
100
AcDbEntity
  8
0
  6
Continuous
 62
     7
370
    25
100
AcDbLine
 10
198.9098960341
 20
191.1244216872
 30
0.0
 11
199.5128484231
 21
190.8746706092
 31
0.0
  0
LINE
  5
8CD
330
1F
100
AcDbEntity
  8
0
  6
Continuous
 62
     7
370
    25
100
AcDbLine
 10
198.262848414
 20
191.2096071421
 30
0.0
 11
198.9098960341
 21
191.1244216872
 31
0.0
  0
LINE
  5
8CE
330
1F
100
AcDbEntity
  8
0
  6
Continuous
 62
     7
370
    25
100
AcDbLine
 10
197.6158007888
 20
191.1244217258
 30
0.0
 11
198.262848414
 21
191.2096071421
 31
0.0
  0
LINE
  5
8CF
330
1F
100
AcDbEntity
  8
0
  6
Continuous
 62
     7
370
    25
100
AcDbLine
 10
197.0128483848
 20
190.8746706837
 30
0.0
 11
197.6158007888
 21
191.1244217258
 31
0.0
  0
LINE
  5
8D0
330
1F
100
AcDbEntity
  8
0
  6
Continuous
 62
     7
370
    25
100
AcDbLine
 10
196.4950814121
 20
190.4773741365
 30
0.0
 11
197.0128483848
 21
190.8746706837
 31
0.0
  0
LINE
  5
8D1
330
1F
100
AcDbEntity
  8
0
  6
Continuous
 62
     7
370
    25
100
AcDbLine
 10
196.0977848341
 20
189.9596071875
 30
0.0
 11
196.4950814121
 21
190.4773741365
 31
0.0
  0
LINE
  5
8D2
330
1F
100
AcDbEntity
  8
0
  6
Continuous
 62
     7
370
    25
100
AcDbLine
 10
195.848033756
 20
189.3566547985
 30
0.0
 11
196.0977848341
 21
189.9596071875
 31
0.0
  0
LINE
  5
8D3
330
1F
100
AcDbEntity
  8
0
  6
Continuous
 62
     7
370
    25
100
AcDbLine
 10
195.7628483012
 20
188.7096071783
 30
0.0
 11
195.848033756
 21
189.3566547985
 31
0.0
  0
LINE
  5
8D4
330
1F
100
AcDbEntity
  8
0
  6
Continuous
 62
     7
370
    25
100
AcDbLine
 10
195.8480337175
 20
188.0625595531
 30
0.0
 11
195.7628483012
 21
188.7096071783
 31
0.0
  0
LINE
  5
8D5
330
1F
100
AcDbEntity
  8
0
  6
Continuous
 62
     7
370
    25
100
AcDbLine
 10
196.0977847596
 20
187.4596071492
 30
0.0
 11
195.8480337175
 21
188.0625595531
 31
0.0
  0
LINE
  5
8D6
330
1F
100
AcDbEntity
  8
0
  6
Continuous
 62
     7
370
    25
100
AcDbLine
 10
196.4950813067
 20
186.9418401765
 30
0.0
 11
196.0977847596
 21
187.4596071492
 31
0.0
  0
LINE
  5
8D7
330
1F
100
AcDbEntity
  8
0
  6
Continuous
 62
     7
370
    25
100
AcDbLine
 10
278.2250445707
 20
162.2898835257
 30
0.0
 11
277.6220921817
 21
162.5396346037
 31
0.0
  0
LINE
  5
8D8
330
1F
100
AcDbEntity
  8
0
  6
Continuous
 62
     7
370
    25
100
AcDbLine
 10
278.8720921908
 20
162.2046980708
 30
0.0
 11
278.2250445707
 21
162.2898835257
 31
0.0
  0
LINE
  5
8D9
330
1F
100
AcDbEntity
  8
0
  6
Continuous
 62
     7
370
    25
100
AcDbLine
 10
279.519139816
 20
162.2898834871
 30
0.0
 11
278.8720921908
 21
162.2046980708
 31
0.0
  0
LINE
  5
8DA
330
1F
100
AcDbEntity
  8
0
  6
Continuous
 62
     7
370
    25
100
AcDbLine
 10
280.12209222
 20
162.5396345292
 30
0.0
 11
279.519139816
 21
162.2898834871
 31
0.0
  0
LINE
  5
8DB
330
1F
100
AcDbEntity
  8
0
  6
Continuous
 62
     7
370
    25
100
AcDbLine
 10
280.6398591927
 20
162.9369310764
 30
0.0
 11
280.12209222
 21
162.5396345292
 31
0.0
  0
LINE
  5
8DC
330
1F
100
AcDbEntity
  8
0
  6
Continuous
 62
     7
370
    25
100
AcDbLine
 10
281.0371557707
 20
163.4546980254
 30
0.0
 11
280.6398591927
 21
162.9369310764
 31
0.0
  0
LINE
  5
8DD
330
1F
100
AcDbEntity
  8
0
  6
Continuous
 62
     7
370
    25
100
AcDbLine
 10
281.2869068487
 20
164.0576504145
 30
0.0
 11
281.0371557707
 21
163.4546980254
 31
0.0
  0
LINE
  5
8DE
330
1F
100
AcDbEntity
  8
0
  6
Continuous
 62
     7
370
    25
100
AcDbLine
 10
281.3720923036
 20
164.7046980346
 30
0.0
 11
281.2869068487
 21
164.0576504145
 31
0.0
  0
LINE
  5
8DF
330
1F
100
AcDbEntity
  8
0
  6
Continuous
 62
     7
370
    25
100
AcDbLine
 10
281.2869068873
 20
165.3517456598
 30
0.0
 11
281.3720923036
 21
164.7046980346
 31
0.0
  0
LINE
  5
8E0
330
1F
100
AcDbEntity
  8
0
  6
Continuous
 62
     7
370
    25
100
AcDbLine
 10
281.0371558452
 20
165.9546980637
 30
0.0
 11
281.2869068873
 21
165.3517456598
 31
0.0
  0
LINE
  5
8E1
330
1F
100
AcDbEntity
  8
0
  6
Continuous
 62
     7
370
    25
100
AcDbLine
 10
280.639859298
 20
166.4724650364
 30
0.0
 11
281.0371558452
 21
165.9546980637
 31
0.0
  0
LINE
  5
8E2
330
1F
100
AcDbEntity
  8
0
  6
Continuous
 62
     7
370
    25
100
AcDbLine
 10
280.122092349
 20
166.8697616144
 30
0.0
 11
280.639859298
 21
166.4724650364
 31
0.0
  0
LINE
  5
8E3
330
1F
100
AcDbEntity
  8
0
  6
Continuous
 62
     7
370
    25
100
AcDbLine
 10
279.51913996
 20
167.1195126925
 30
0.0
 11
280.122092349
 21
166.8697616144
 31
0.0
  0
LINE
  5
8E4
330
1F
100
AcDbEntity
  8
0
  6
Continuous
 62
     7
370
    25
100
AcDbLine
 10
278.8720923399
 20
167.2046981473
 30
0.0
 11
279.51913996
 21
167.1195126925
 31
0.0
  0
LINE
  5
8E5
330
1F
100
AcDbEntity
  8
0
  6
Continuous
 62
     7
370
    25
100
AcDbLine
 10
278.2250447147
 20
167.119512731
 30
0.0
 11
278.8720923399
 21
167.2046981473
 31
0.0
  0
LINE
  5
8E6
330
1F
100
AcDbEntity
  8
0
  6
Continuous
 62
     7
370
    25
100
AcDbLine
 10
277.6220923107
 20
166.8697616889
 30
0.0
 11
278.2250447147
 21
167.119512731
 31
0.0
  0
LINE
  5
8E7
330
1F
100
AcDbEntity
  8
0
  6
Continuous
 62
     7
370
    25
100
AcDbLine
 10
277.104325338
 20
166.4724651418
 30
0.0
 11
277.6220923107
 21
166.8697616889
 31
0.0
  0
LINE
  5
8E8
330
1F
100
AcDbEntity
  8
0
  6
Continuous
 62
     7
370
    25
100
AcDbLine
 10
276.70702876
 20
165.9546981927
 30
0.0
 11
277.104325338
 21
166.4724651418
 31
0.0
  0
LINE
  5
8E9
330
1F
100
AcDbEntity
  8
0
  6
Continuous
 62
     7
370
    25
100
AcDbLine
 10
276.4572776819
 20
165.3517458037
 30
0.0
 11
276.70702876
 21
165.9546981927
 31
0.0
  0
LINE
  5
8EA
330
1F
100
AcDbEntity
  8
0
  6
Continuous
 62
     7
370
    25
100
AcDbLine
 10
276.3720922271
 20
164.7046981836
 30
0.0
 11
276.4572776819
 21
165.3517458037
 31
0.0
  0
LINE
  5
8EB
330
1F
100
AcDbEntity
  8
0
  6
Continuous
 62
     7
370
    25
100
AcDbLine
 10
276.4572776434
 20
164.0576505584
 30
0.0
 11
276.3720922271
 21
164.7046981836
 31
0.0
  0
LINE
  5
8EC
330
1F
100
AcDbEntity
  8
0
  6
Continuous
 62
     7
370
    25
100
AcDbLine
 10
276.7070286855
 20
163.4546981545
 30
0.0
 11
276.4572776434
 21
164.0576505584
 31
0.0
  0
LINE
  5
8ED
330
1F
100
AcDbEntity
  8
0
  6
Continuous
 62
     7
370
    25
100
AcDbLine
 10
277.1043252326
 20
162.9369311817
 30
0.0
 11
276.7070286855
 21
163.4546981545
 31
0.0
  0
LINE
  5
8EE
330
1F
100
AcDbEntity
  8
0
  6
Continuous
 62
     7
370
    25
100
AcDbLine
 10
277.6220921817
 20
162.5396346037
 30
0.0
 11
277.1043252326
 21
162.9369311817
 31
0.0
  0
LINE
  5
8EF
330
1F
100
AcDbEntity
  8
0
  6
Continuous
 62
     7
370
    25
100
AcDbLine
 10
205.5520922183
 20
8.8202570847
 30
0.0
 11
204.6284964557
 21
8.9418507736
 31
0.0
  0
LINE
  5
8F0
330
1F
100
AcDbEntity
  8
0
  6
Continuous
 62
     7
370
    25
100
AcDbLine
 10
206.4756879808
 20
8.9418507736
 30
0.0
 11
205.5520922183
 21
8.8202570847
 31
0.0
  0
LINE
  5
8F1
330
1F
100
AcDbEntity
  8
0
  6
Continuous
 62
     7
370
    25
100
AcDbLine
 10
207.3363422185
 20
9.2983454313
 30
0.0
 11
206.4756879808
 21
8.9418507736
 31
0.0
  0
LINE
  5
8F2
330
1F
100
AcDbEntity
  8
0
  6
Continuous
 62
     7
370
    25
100
AcDbLine
 10
208.0754027672
 20
9.8654465361
 30
0.0
 11
207.3363422185
 21
9.2983454313
 31
0.0
  0
LINE
  5
8F3
330
1F
100
AcDbEntity
  8
0
  6
Continuous
 62
     7
370
    25
100
AcDbLine
 10
208.642503872
 20
10.6045070849
 30
0.0
 11
208.0754027672
 21
9.8654465361
 31
0.0
  0
LINE
  5
8F4
330
1F
100
AcDbEntity
  8
0
  6
Continuous
 62
     7
370
    25
100
AcDbLine
 10
208.9989985298
 20
11.4651613225
 30
0.0
 11
208.642503872
 21
10.6045070849
 31
0.0
  0
LINE
  5
8F5
330
1F
100
AcDbEntity
  8
0
  6
Continuous
 62
     7
370
    25
100
AcDbLine
 10
209.1205922187
 20
12.3887570851
 30
0.0
 11
208.9989985298
 21
11.4651613225
 31
0.0
  0
LINE
  5
8F6
330
1F
100
AcDbEntity
  8
0
  6
Continuous
 62
     7
370
    25
100
AcDbLine
 10
208.9989985298
 20
13.3123528476
 30
0.0
 11
209.1205922187
 21
12.3887570851
 31
0.0
  0
LINE
  5
8F7
330
1F
100
AcDbEntity
  8
0
  6
Continuous
 62
     7
370
    25
100
AcDbLine
 10
208.642503872
 20
14.1730070853
 30
0.0
 11
208.9989985298
 21
13.3123528476
 31
0.0
  0
LINE
  5
8F8
330
1F
100
AcDbEntity
  8
0
  6
Continuous
 62
     7
370
    25
100
AcDbLine
 10
208.0754027672
 20
14.912067634
 30
0.0
 11
208.642503872
 21
14.1730070853
 31
0.0
  0
LINE
  5
8F9
330
1F
100
AcDbEntity
  8
0
  6
Continuous
 62
     7
370
    25
100
AcDbLine
 10
207.3363422185
 20
15.4791687388
 30
0.0
 11
208.0754027672
 21
14.912067634
 31
0.0
  0
LINE
  5
8FA
330
1F
100
AcDbEntity
  8
0
  6
Continuous
 62
     7
370
    25
100
AcDbLine
 10
206.4756879808
 20
15.8356633966
 30
0.0
 11
207.3363422185
 21
15.4791687388
 31
0.0
  0
LINE
  5
8FB
330
1F
100
AcDbEntity
  8
0
  6
Continuous
 62
     7
370
    25
100
AcDbLine
 10
205.5520922183
 20
15.9572570855
 30
0.0
 11
206.4756879808
 21
15.8356633966
 31
0.0
  0
LINE
  5
8FC
330
1F
100
AcDbEntity
  8
0
  6
Continuous
 62
     7
370
    25
100
AcDbLine
 10
204.6284964557
 20
15.8356633966
 30
0.0
 11
205.5520922183
 21
15.9572570855
 31
0.0
  0
LINE
  5
8FD
330
1F
100
AcDbEntity
  8
0
  6
Continuous
 62
     7
370
    25
100
AcDbLine
 10
203.7678422181
 20
15.4791687388
 30
0.0
 11
204.6284964557
 21
15.8356633966
 31
0.0
  0
LINE
  5
8FE
330
1F
100
AcDbEntity
  8
0
  6
Continuous
 62
     7
370
    25
100
AcDbLine
 10
203.0287816693
 20
14.912067634
 30
0.0
 11
203.7678422181
 21
15.4791687388
 31
0.0
  0
LINE
  5
8FF
330
1F
100
AcDbEntity
  8
0
  6
Continuous
 62
     7
370
    25
100
AcDbLine
 10
202.4616805645
 20
14.1730070853
 30
0.0
 11
203.0287816693
 21
14.912067634
 31
0.0
  0
LINE
  5
900
330
1F
100
AcDbEntity
  8
0
  6
Continuous
 62
     7
370
    25
100
AcDbLine
 10
202.1051859068
 20
13.3123528476
 30
0.0
 11
202.4616805645
 21
14.1730070853
 31
0.0
  0
LINE
  5
901
330
1F
100
AcDbEntity
  8
0
  6
Continuous
 62
     7
370
    25
100
AcDbLine
 10
201.9835922179
 20
12.3887570851
 30
0.0
 11
202.1051859068
 21
13.3123528476
 31
0.0
  0
LINE
  5
902
330
1F
100
AcDbEntity
  8
0
  6
Continuous
 62
     7
370
    25
100
AcDbLine
 10
202.1051859068
 20
11.4651613225
 30
0.0
 11
201.9835922179
 21
12.3887570851
 31
0.0
  0
LINE
  5
903
330
1F
100
AcDbEntity
  8
0
  6
Continuous
 62
     7
370
    25
100
AcDbLine
 10
202.4616805645
 20
10.6045070849
 30
0.0
 11
202.1051859068
 21
11.4651613225
 31
0.0
  0
LINE
  5
904
330
1F
100
AcDbEntity
  8
0
  6
Continuous
 62
     7
370
    25
100
AcDbLine
 10
203.0287816693
 20
9.8654465361
 30
0.0
 11
202.4616805645
 21
10.6045070849
 31
0.0
  0
LINE
  5
905
330
1F
100
AcDbEntity
  8
0
  6
Continuous
 62
     7
370
    25
100
AcDbLine
 10
203.7678422181
 20
9.2983454313
 30
0.0
 11
203.0287816693
 21
9.8654465361
 31
0.0
  0
LINE
  5
906
330
1F
100
AcDbEntity
  8
0
  6
Continuous
 62
     7
370
    25
100
AcDbLine
 10
204.6284964557
 20
8.9418507736
 30
0.0
 11
203.7678422181
 21
9.2983454313
 31
0.0
  0
LINE
  5
907
330
1F
100
AcDbEntity
  8
0
  6
Continuous
 62
     7
370
    25
100
AcDbLine
 10
279.1043252654
 20
109.9824905505
 30
0.0
 11
278.7070287087
 21
110.5002575037
 31
0.0
  0
LINE
  5
908
330
1F
100
AcDbEntity
  8
0
  6
Continuous
 62
     7
370
    25
100
AcDbLine
 10
279.6220922186
 20
109.5851939938
 30
0.0
 11
279.1043252654
 21
109.9824905505
 31
0.0
  0
LINE
  5
909
330
1F
100
AcDbEntity
  8
0
  6
Continuous
 62
     7
370
    25
100
AcDbLine
 10
280.2250446062
 20
109.3354429374
 30
0.0
 11
279.6220922186
 21
109.5851939938
 31
0.0
  0
LINE
  5
90A
330
1F
100
AcDbEntity
  8
0
  6
Continuous
 62
     7
370
    25
100
AcDbLine
 10
280.8720922193
 20
109.250257503
 30
0.0
 11
280.2250446062
 21
109.3354429374
 31
0.0
  0
LINE
  5
90B
330
1F
100
AcDbEntity
  8
0
  6
Continuous
 62
     7
370
    25
100
AcDbLine
 10
281.5191398323
 20
109.3354429374
 30
0.0
 11
280.8720922193
 21
109.250257503
 31
0.0
  0
LINE
  5
90C
330
1F
100
AcDbEntity
  8
0
  6
Continuous
 62
     7
370
    25
100
AcDbLine
 10
282.1220922199
 20
109.5851939938
 30
0.0
 11
281.5191398323
 21
109.3354429374
 31
0.0
  0
LINE
  5
90D
330
1F
100
AcDbEntity
  8
0
  6
Continuous
 62
     7
370
    25
100
AcDbLine
 10
282.6398591731
 20
109.9824905504
 30
0.0
 11
282.1220922199
 21
109.5851939938
 31
0.0
  0
LINE
  5
90E
330
1F
100
AcDbEntity
  8
0
  6
Continuous
 62
     7
370
    25
100
AcDbLine
 10
283.0371557298
 20
110.5002575037
 30
0.0
 11
282.6398591731
 21
109.9824905504
 31
0.0
  0
LINE
  5
90F
330
1F
100
AcDbEntity
  8
0
  6
Continuous
 62
     7
370
    25
100
AcDbLine
 10
283.2869067862
 20
111.1032098912
 30
0.0
 11
283.0371557298
 21
110.5002575037
 31
0.0
  0
LINE
  5
910
330
1F
100
AcDbEntity
  8
0
  6
Continuous
 62
     7
370
    25
100
AcDbLine
 10
283.3720922205
 20
111.7502575043
 30
0.0
 11
283.2869067862
 21
111.1032098912
 31
0.0
  0
LINE
  5
911
330
1F
100
AcDbEntity
  8
0
  6
Continuous
 62
     7
370
    25
100
AcDbLine
 10
283.2869067862
 20
112.3973051174
 30
0.0
 11
283.3720922205
 21
111.7502575043
 31
0.0
  0
LINE
  5
912
330
1F
100
AcDbEntity
  8
0
  6
Continuous
 62
     7
370
    25
100
AcDbLine
 10
283.0371557298
 20
113.0002575049
 30
0.0
 11
283.2869067862
 21
112.3973051174
 31
0.0
  0
LINE
  5
913
330
1F
100
AcDbEntity
  8
0
  6
Continuous
 62
     7
370
    25
100
AcDbLine
 10
282.6398591731
 20
113.5180244582
 30
0.0
 11
283.0371557298
 21
113.0002575049
 31
0.0
  0
LINE
  5
914
330
1F
100
AcDbEntity
  8
0
  6
Continuous
 62
     7
370
    25
100
AcDbLine
 10
282.1220922199
 20
113.9153210149
 30
0.0
 11
282.6398591731
 21
113.5180244582
 31
0.0
  0
LINE
  5
915
330
1F
100
AcDbEntity
  8
0
  6
Continuous
 62
     7
370
    25
100
AcDbLine
 10
281.5191398323
 20
114.1650720712
 30
0.0
 11
282.1220922199
 21
113.9153210149
 31
0.0
  0
LINE
  5
916
330
1F
100
AcDbEntity
  8
0
  6
Continuous
 62
     7
370
    25
100
AcDbLine
 10
280.8720922193
 20
114.2502575056
 30
0.0
 11
281.5191398323
 21
114.1650720712
 31
0.0
  0
LINE
  5
917
330
1F
100
AcDbEntity
  8
0
  6
Continuous
 62
     7
370
    25
100
AcDbLine
 10
280.2250446062
 20
114.1650720712
 30
0.0
 11
280.8720922193
 21
114.2502575056
 31
0.0
  0
LINE
  5
918
330
1F
100
AcDbEntity
  8
0
  6
Continuous
 62
     7
370
    25
100
AcDbLine
 10
279.6220922186
 20
113.9153210149
 30
0.0
 11
280.2250446062
 21
114.1650720712
 31
0.0
  0
LINE
  5
919
330
1F
100
AcDbEntity
  8
0
  6
Continuous
 62
     7
370
    25
100
AcDbLine
 10
279.1043252654
 20
113.5180244582
 30
0.0
 11
279.6220922186
 21
113.9153210149
 31
0.0
  0
LINE
  5
91A
330
1F
100
AcDbEntity
  8
0
  6
Continuous
 62
     7
370
    25
100
AcDbLine
 10
278.7070287087
 20
113.0002575049
 30
0.0
 11
279.1043252654
 21
113.5180244582
 31
0.0
  0
LINE
  5
91B
330
1F
100
AcDbEntity
  8
0
  6
Continuous
 62
     7
370
    25
100
AcDbLine
 10
278.4572776523
 20
112.3973051174
 30
0.0
 11
278.7070287087
 21
113.0002575049
 31
0.0
  0
LINE
  5
91C
330
1F
100
AcDbEntity
  8
0
  6
Continuous
 62
     7
370
    25
100
AcDbLine
 10
278.372092218
 20
111.7502575043
 30
0.0
 11
278.4572776523
 21
112.3973051174
 31
0.0
  0
LINE
  5
91D
330
1F
100
AcDbEntity
  8
0
  6
Continuous
 62
     7
370
    25
100
AcDbLine
 10
278.4572776523
 20
111.1032098912
 30
0.0
 11
278.372092218
 21
111.7502575043
 31
0.0
  0
LINE
  5
91E
330
1F
100
AcDbEntity
  8
0
  6
Continuous
 62
     7
370
    25
100
AcDbLine
 10
278.7070287087
 20
110.5002575037
 30
0.0
 11
278.4572776523
 21
111.1032098912
 31
0.0
  0
LINE
  5
91F
330
1F
100
AcDbEntity
  8
0
  6
Continuous
 62
     7
370
    25
100
AcDbLine
 10
242.1220922187
 20
109.585193995
 30
0.0
 11
241.5191398312
 21
109.3354429386
 31
0.0
  0
LINE
  5
920
330
1F
100
AcDbEntity
  8
0
  6
Continuous
 62
     7
370
    25
100
AcDbLine
 10
242.6398591719
 20
109.9824905517
 30
0.0
 11
242.1220922187
 21
109.585193995
 31
0.0
  0
LINE
  5
921
330
1F
100
AcDbEntity
  8
0
  6
Continuous
 62
     7
370
    25
100
AcDbLine
 10
243.0371557286
 20
110.5002575049
 30
0.0
 11
242.6398591719
 21
109.9824905517
 31
0.0
  0
LINE
  5
922
330
1F
100
AcDbEntity
  8
0
  6
Continuous
 62
     7
370
    25
100
AcDbLine
 10
243.286906785
 20
111.1032098925
 30
0.0
 11
243.0371557286
 21
110.5002575049
 31
0.0
  0
LINE
  5
923
330
1F
100
AcDbEntity
  8
0
  6
Continuous
 62
     7
370
    25
100
AcDbLine
 10
243.3720922193
 20
111.7502575056
 30
0.0
 11
243.286906785
 21
111.1032098925
 31
0.0
  0
LINE
  5
924
330
1F
100
AcDbEntity
  8
0
  6
Continuous
 62
     7
370
    25
100
AcDbLine
 10
243.286906785
 20
112.3973051187
 30
0.0
 11
243.3720922193
 21
111.7502575056
 31
0.0
  0
LINE
  5
925
330
1F
100
AcDbEntity
  8
0
  6
Continuous
 62
     7
370
    25
100
AcDbLine
 10
243.0371557286
 20
113.0002575062
 30
0.0
 11
243.286906785
 21
112.3973051187
 31
0.0
  0
LINE
  5
926
330
1F
100
AcDbEntity
  8
0
  6
Continuous
 62
     7
370
    25
100
AcDbLine
 10
242.6398591719
 20
113.5180244594
 30
0.0
 11
243.0371557286
 21
113.0002575062
 31
0.0
  0
LINE
  5
927
330
1F
100
AcDbEntity
  8
0
  6
Continuous
 62
     7
370
    25
100
AcDbLine
 10
242.1220922187
 20
113.9153210161
 30
0.0
 11
242.6398591719
 21
113.5180244594
 31
0.0
  0
LINE
  5
928
330
1F
100
AcDbEntity
  8
0
  6
Continuous
 62
     7
370
    25
100
AcDbLine
 10
241.5191398312
 20
114.1650720725
 30
0.0
 11
242.1220922187
 21
113.9153210161
 31
0.0
  0
LINE
  5
929
330
1F
100
AcDbEntity
  8
0
  6
Continuous
 62
     7
370
    25
100
AcDbLine
 10
240.8720922181
 20
114.2502575068
 30
0.0
 11
241.5191398312
 21
114.1650720725
 31
0.0
  0
LINE
  5
92A
330
1F
100
AcDbEntity
  8
0
  6
Continuous
 62
     7
370
    25
100
AcDbLine
 10
240.225044605
 20
114.1650720725
 30
0.0
 11
240.8720922181
 21
114.2502575068
 31
0.0
  0
LINE
  5
92B
330
1F
100
AcDbEntity
  8
0
  6
Continuous
 62
     7
370
    25
100
AcDbLine
 10
239.6220922175
 20
113.9153210161
 30
0.0
 11
240.225044605
 21
114.1650720725
 31
0.0
  0
LINE
  5
92C
330
1F
100
AcDbEntity
  8
0
  6
Continuous
 62
     7
370
    25
100
AcDbLine
 10
239.1043252642
 20
113.5180244594
 30
0.0
 11
239.6220922175
 21
113.9153210161
 31
0.0
  0
LINE
  5
92D
330
1F
100
AcDbEntity
  8
0
  6
Continuous
 62
     7
370
    25
100
AcDbLine
 10
238.7070287075
 20
113.0002575062
 30
0.0
 11
239.1043252642
 21
113.5180244594
 31
0.0
  0
LINE
  5
92E
330
1F
100
AcDbEntity
  8
0
  6
Continuous
 62
     7
370
    25
100
AcDbLine
 10
238.4572776511
 20
112.3973051187
 30
0.0
 11
238.7070287075
 21
113.0002575062
 31
0.0
  0
LINE
  5
92F
330
1F
100
AcDbEntity
  8
0
  6
Continuous
 62
     7
370
    25
100
AcDbLine
 10
238.3720922168
 20
111.7502575056
 30
0.0
 11
238.4572776511
 21
112.3973051187
 31
0.0
  0
LINE
  5
930
330
1F
100
AcDbEntity
  8
0
  6
Continuous
 62
     7
370
    25
100
AcDbLine
 10
238.4572776511
 20
111.1032098925
 30
0.0
 11
238.3720922168
 21
111.7502575056
 31
0.0
  0
LINE
  5
931
330
1F
100
AcDbEntity
  8
0
  6
Continuous
 62
     7
370
    25
100
AcDbLine
 10
238.7070287075
 20
110.5002575049
 30
0.0
 11
238.4572776511
 21
111.1032098925
 31
0.0
  0
LINE
  5
932
330
1F
100
AcDbEntity
  8
0
  6
Continuous
 62
     7
370
    25
100
AcDbLine
 10
239.1043252642
 20
109.9824905517
 30
0.0
 11
238.7070287075
 21
110.5002575049
 31
0.0
  0
LINE
  5
933
330
1F
100
AcDbEntity
  8
0
  6
Continuous
 62
     7
370
    25
100
AcDbLine
 10
239.6220922175
 20
109.585193995
 30
0.0
 11
239.1043252642
 21
109.9824905517
 31
0.0
  0
LINE
  5
934
330
1F
100
AcDbEntity
  8
0
  6
Continuous
 62
     7
370
    25
100
AcDbLine
 10
240.225044605
 20
109.3354429386
 30
0.0
 11
239.6220922175
 21
109.585193995
 31
0.0
  0
LINE
  5
935
330
1F
100
AcDbEntity
  8
0
  6
Continuous
 62
     7
370
    25
100
AcDbLine
 10
240.8720922181
 20
109.2502575043
 30
0.0
 11
240.225044605
 21
109.3354429386
 31
0.0
  0
LINE
  5
936
330
1F
100
AcDbEntity
  8
0
  6
Continuous
 62
     7
370
    25
100
AcDbLine
 10
241.5191398312
 20
109.3354429386
 30
0.0
 11
240.8720922181
 21
109.2502575043
 31
0.0
  0
LINE
  5
937
330
1F
100
AcDbEntity
  8
0
  6
Continuous
 62
     7
370
    25
100
AcDbLine
 10
197.0128482558
 20
166.4953558484
 30
0.0
 11
196.4950813067
 21
166.8926524264
 31
0.0
  0
LINE
  5
938
330
1F
100
AcDbEntity
  8
0
  6
Continuous
 62
     7
370
    25
100
AcDbLine
 10
197.6158006448
 20
166.2456047703
 30
0.0
 11
197.0128482558
 21
166.4953558484
 31
0.0
  0
LINE
  5
939
330
1F
100
AcDbEntity
  8
0
  6
Continuous
 62
     7
370
    25
100
AcDbLine
 10
198.2628482649
 20
166.1604193155
 30
0.0
 11
197.6158006448
 21
166.2456047703
 31
0.0
  0
LINE
  5
93A
330
1F
100
AcDbEntity
  8
0
  6
Continuous
 62
     7
370
    25
100
AcDbLine
 10
198.9098958901
 20
166.2456047318
 30
0.0
 11
198.2628482649
 21
166.1604193155
 31
0.0
  0
LINE
  5
93B
330
1F
100
AcDbEntity
  8
0
  6
Continuous
 62
     7
370
    25
100
AcDbLine
 10
199.5128482941
 20
166.4953557739
 30
0.0
 11
198.9098958901
 21
166.2456047318
 31
0.0
  0
LINE
  5
93C
330
1F
100
AcDbEntity
  8
0
  6
Continuous
 62
     7
370
    25
100
AcDbLine
 10
200.0306152668
 20
166.892652321
 30
0.0
 11
199.5128482941
 21
166.4953557739
 31
0.0
  0
LINE
  5
93D
330
1F
100
AcDbEntity
  8
0
  6
Continuous
 62
     7
370
    25
100
AcDbLine
 10
200.4279118448
 20
167.4104192701
 30
0.0
 11
200.0306152668
 21
166.892652321
 31
0.0
  0
LINE
  5
93E
330
1F
100
AcDbEntity
  8
0
  6
Continuous
 62
     7
370
    25
100
AcDbLine
 10
200.6776629228
 20
168.0133716591
 30
0.0
 11
200.4279118448
 21
167.4104192701
 31
0.0
  0
LINE
  5
93F
330
1F
100
AcDbEntity
  8
0
  6
Continuous
 62
     7
370
    25
100
AcDbLine
 10
200.7628483777
 20
168.6604192792
 30
0.0
 11
200.6776629228
 21
168.0133716591
 31
0.0
  0
LINE
  5
940
330
1F
100
AcDbEntity
  8
0
  6
Continuous
 62
     7
370
    25
100
AcDbLine
 10
200.6776629614
 20
169.3074669044
 30
0.0
 11
200.7628483777
 21
168.6604192792
 31
0.0
  0
LINE
  5
941
330
1F
100
AcDbEntity
  8
0
  6
Continuous
 62
     7
370
    25
100
AcDbLine
 10
200.4279119193
 20
169.9104193083
 30
0.0
 11
200.6776629614
 21
169.3074669044
 31
0.0
  0
LINE
  5
942
330
1F
100
AcDbEntity
  8
0
  6
Continuous
 62
     7
370
    25
100
AcDbLine
 10
200.0306153722
 20
170.4281862811
 30
0.0
 11
200.4279119193
 21
169.9104193083
 31
0.0
  0
LINE
  5
943
330
1F
100
AcDbEntity
  8
0
  6
Continuous
 62
     7
370
    25
100
AcDbLine
 10
199.5128484231
 20
170.8254828591
 30
0.0
 11
200.0306153722
 21
170.4281862811
 31
0.0
  0
LINE
  5
944
330
1F
100
AcDbEntity
  8
0
  6
Continuous
 62
     7
370
    25
100
AcDbLine
 10
198.9098960341
 20
171.0752339371
 30
0.0
 11
199.5128484231
 21
170.8254828591
 31
0.0
  0
LINE
  5
945
330
1F
100
AcDbEntity
  8
0
  6
Continuous
 62
     7
370
    25
100
AcDbLine
 10
198.262848414
 20
171.160419392
 30
0.0
 11
198.9098960341
 21
171.0752339371
 31
0.0
  0
LINE
  5
946
330
1F
100
AcDbEntity
  8
0
  6
Continuous
 62
     7
370
    25
100
AcDbLine
 10
197.6158007888
 20
171.0752339757
 30
0.0
 11
198.262848414
 21
171.160419392
 31
0.0
  0
LINE
  5
947
330
1F
100
AcDbEntity
  8
0
  6
Continuous
 62
     7
370
    25
100
AcDbLine
 10
197.0128483848
 20
170.8254829336
 30
0.0
 11
197.6158007888
 21
171.0752339757
 31
0.0
  0
LINE
  5
948
330
1F
100
AcDbEntity
  8
0
  6
Continuous
 62
     7
370
    25
100
AcDbLine
 10
196.4950814121
 20
170.4281863864
 30
0.0
 11
197.0128483848
 21
170.8254829336
 31
0.0
  0
LINE
  5
949
330
1F
100
AcDbEntity
  8
0
  6
Continuous
 62
     7
370
    25
100
AcDbLine
 10
196.0977848341
 20
169.9104194374
 30
0.0
 11
196.4950814121
 21
170.4281863864
 31
0.0
  0
LINE
  5
94A
330
1F
100
AcDbEntity
  8
0
  6
Continuous
 62
     7
370
    25
100
AcDbLine
 10
195.848033756
 20
169.3074670483
 30
0.0
 11
196.0977848341
 21
169.9104194374
 31
0.0
  0
LINE
  5
94B
330
1F
100
AcDbEntity
  8
0
  6
Continuous
 62
     7
370
    25
100
AcDbLine
 10
195.7628483012
 20
168.6604194282
 30
0.0
 11
195.848033756
 21
169.3074670483
 31
0.0
  0
LINE
  5
94C
330
1F
100
AcDbEntity
  8
0
  6
Continuous
 62
     7
370
    25
100
AcDbLine
 10
195.8480337175
 20
168.013371803
 30
0.0
 11
195.7628483012
 21
168.6604194282
 31
0.0
  0
LINE
  5
94D
330
1F
100
AcDbEntity
  8
0
  6
Continuous
 62
     7
370
    25
100
AcDbLine
 10
196.0977847596
 20
167.4104193991
 30
0.0
 11
195.8480337175
 21
168.013371803
 31
0.0
  0
LINE
  5
94E
330
1F
100
AcDbEntity
  8
0
  6
Continuous
 62
     7
370
    25
100
AcDbLine
 10
196.4950813067
 20
166.8926524264
 30
0.0
 11
196.0977847596
 21
167.4104193991
 31
0.0
  0
LINE
  5
94F
330
1F
100
AcDbEntity
  8
0
  6
Continuous
 62
     7
370
    25
100
AcDbLine
 10
127.1416805647
 20
14.1730070853
 30
0.0
 11
127.7087816695
 21
14.912067634
 31
0.0
  0
LINE
  5
950
330
1F
100
AcDbEntity
  8
0
  6
Continuous
 62
     7
370
    25
100
AcDbLine
 10
126.7851859069
 20
13.3123528476
 30
0.0
 11
127.1416805647
 21
14.1730070853
 31
0.0
  0
LINE
  5
951
330
1F
100
AcDbEntity
  8
0
  6
Continuous
 62
     7
370
    25
100
AcDbLine
 10
126.663592218
 20
12.3887570851
 30
0.0
 11
126.7851859069
 21
13.3123528476
 31
0.0
  0
LINE
  5
952
330
1F
100
AcDbEntity
  8
0
  6
Continuous
 62
     7
370
    25
100
AcDbLine
 10
126.7851859069
 20
11.4651613225
 30
0.0
 11
126.663592218
 21
12.3887570851
 31
0.0
  0
LINE
  5
953
330
1F
100
AcDbEntity
  8
0
  6
Continuous
 62
     7
370
    25
100
AcDbLine
 10
127.1416805647
 20
10.6045070849
 30
0.0
 11
126.7851859069
 21
11.4651613225
 31
0.0
  0
LINE
  5
954
330
1F
100
AcDbEntity
  8
0
  6
Continuous
 62
     7
370
    25
100
AcDbLine
 10
127.7087816695
 20
9.8654465361
 30
0.0
 11
127.1416805647
 21
10.6045070849
 31
0.0
  0
LINE
  5
955
330
1F
100
AcDbEntity
  8
0
  6
Continuous
 62
     7
370
    25
100
AcDbLine
 10
128.4478422182
 20
9.2983454313
 30
0.0
 11
127.7087816695
 21
9.8654465361
 31
0.0
  0
LINE
  5
956
330
1F
100
AcDbEntity
  8
0
  6
Continuous
 62
     7
370
    25
100
AcDbLine
 10
129.3084964559
 20
8.9418507736
 30
0.0
 11
128.4478422182
 21
9.2983454313
 31
0.0
  0
LINE
  5
957
330
1F
100
AcDbEntity
  8
0
  6
Continuous
 62
     7
370
    25
100
AcDbLine
 10
130.2320922184
 20
8.8202570847
 30
0.0
 11
129.3084964559
 21
8.9418507736
 31
0.0
  0
LINE
  5
958
330
1F
100
AcDbEntity
  8
0
  6
Continuous
 62
     7
370
    25
100
AcDbLine
 10
131.155687981
 20
8.9418507736
 30
0.0
 11
130.2320922184
 21
8.8202570847
 31
0.0
  0
LINE
  5
959
330
1F
100
AcDbEntity
  8
0
  6
Continuous
 62
     7
370
    25
100
AcDbLine
 10
132.0163422186
 20
9.2983454313
 30
0.0
 11
131.155687981
 21
8.9418507736
 31
0.0
  0
LINE
  5
95A
330
1F
100
AcDbEntity
  8
0
  6
Continuous
 62
     7
370
    25
100
AcDbLine
 10
132.7554027674
 20
9.8654465361
 30
0.0
 11
132.0163422186
 21
9.2983454313
 31
0.0
  0
LINE
  5
95B
330
1F
100
AcDbEntity
  8
0
  6
Continuous
 62
     7
370
    25
100
AcDbLine
 10
133.3225038722
 20
10.6045070849
 30
0.0
 11
132.7554027674
 21
9.8654465361
 31
0.0
  0
LINE
  5
95C
330
1F
100
AcDbEntity
  8
0
  6
Continuous
 62
     7
370
    25
100
AcDbLine
 10
133.6789985299
 20
11.4651613225
 30
0.0
 11
133.3225038722
 21
10.6045070849
 31
0.0
  0
LINE
  5
95D
330
1F
100
AcDbEntity
  8
0
  6
Continuous
 62
     7
370
    25
100
AcDbLine
 10
133.8005922188
 20
12.3887570851
 30
0.0
 11
133.6789985299
 21
11.4651613225
 31
0.0
  0
LINE
  5
95E
330
1F
100
AcDbEntity
  8
0
  6
Continuous
 62
     7
370
    25
100
AcDbLine
 10
133.6789985299
 20
13.3123528476
 30
0.0
 11
133.8005922188
 21
12.3887570851
 31
0.0
  0
LINE
  5
95F
330
1F
100
AcDbEntity
  8
0
  6
Continuous
 62
     7
370
    25
100
AcDbLine
 10
133.3225038722
 20
14.1730070853
 30
0.0
 11
133.6789985299
 21
13.3123528476
 31
0.0
  0
LINE
  5
960
330
1F
100
AcDbEntity
  8
0
  6
Continuous
 62
     7
370
    25
100
AcDbLine
 10
132.7554027674
 20
14.912067634
 30
0.0
 11
133.3225038722
 21
14.1730070853
 31
0.0
  0
LINE
  5
961
330
1F
100
AcDbEntity
  8
0
  6
Continuous
 62
     7
370
    25
100
AcDbLine
 10
132.0163422186
 20
15.4791687388
 30
0.0
 11
132.7554027674
 21
14.912067634
 31
0.0
  0
LINE
  5
962
330
1F
100
AcDbEntity
  8
0
  6
Continuous
 62
     7
370
    25
100
AcDbLine
 10
131.155687981
 20
15.8356633966
 30
0.0
 11
132.0163422186
 21
15.4791687388
 31
0.0
  0
LINE
  5
963
330
1F
100
AcDbEntity
  8
0
  6
Continuous
 62
     7
370
    25
100
AcDbLine
 10
130.2320922184
 20
15.9572570855
 30
0.0
 11
131.155687981
 21
15.8356633966
 31
0.0
  0
LINE
  5
964
330
1F
100
AcDbEntity
  8
0
  6
Continuous
 62
     7
370
    25
100
AcDbLine
 10
129.3084964559
 20
15.8356633966
 30
0.0
 11
130.2320922184
 21
15.9572570855
 31
0.0
  0
LINE
  5
965
330
1F
100
AcDbEntity
  8
0
  6
Continuous
 62
     7
370
    25
100
AcDbLine
 10
128.4478422182
 20
15.4791687388
 30
0.0
 11
129.3084964559
 21
15.8356633966
 31
0.0
  0
LINE
  5
966
330
1F
100
AcDbEntity
  8
0
  6
Continuous
 62
     7
370
    25
100
AcDbLine
 10
127.7087816695
 20
14.912067634
 30
0.0
 11
128.4478422182
 21
15.4791687388
 31
0.0
  0
LINE
  5
967
330
1F
100
AcDbEntity
  8
0
  6
Continuous
 62
     7
370
    25
100
AcDbLine
 10
258.3506406926
 20
186.2487663072
 30
0.0
 11
257.7476883036
 21
186.4985173852
 31
0.0
  0
LINE
  5
968
330
1F
100
AcDbEntity
  8
0
  6
Continuous
 62
     7
370
    25
100
AcDbLine
 10
258.9976883128
 20
186.1635808523
 30
0.0
 11
258.3506406926
 21
186.2487663072
 31
0.0
  0
LINE
  5
969
330
1F
100
AcDbEntity
  8
0
  6
Continuous
 62
     7
370
    25
100
AcDbLine
 10
259.644735938
 20
186.2487662686
 30
0.0
 11
258.9976883128
 21
186.1635808523
 31
0.0
  0
LINE
  5
96A
330
1F
100
AcDbEntity
  8
0
  6
Continuous
 62
     7
370
    25
100
AcDbLine
 10
260.2476883419
 20
186.4985173107
 30
0.0
 11
259.644735938
 21
186.2487662686
 31
0.0
  0
LINE
  5
96B
330
1F
100
AcDbEntity
  8
0
  6
Continuous
 62
     7
370
    25
100
AcDbLine
 10
260.7654553146
 20
186.8958138579
 30
0.0
 11
260.2476883419
 21
186.4985173107
 31
0.0
  0
LINE
  5
96C
330
1F
100
AcDbEntity
  8
0
  6
Continuous
 62
     7
370
    25
100
AcDbLine
 10
261.1627518926
 20
187.4135808069
 30
0.0
 11
260.7654553146
 21
186.8958138579
 31
0.0
  0
LINE
  5
96D
330
1F
100
AcDbEntity
  8
0
  6
Continuous
 62
     7
370
    25
100
AcDbLine
 10
261.4125029707
 20
188.0165331959
 30
0.0
 11
261.1627518926
 21
187.4135808069
 31
0.0
  0
LINE
  5
96E
330
1F
100
AcDbEntity
  8
0
  6
Continuous
 62
     7
370
    25
100
AcDbLine
 10
261.4976884255
 20
188.6635808161
 30
0.0
 11
261.4125029707
 21
188.0165331959
 31
0.0
  0
LINE
  5
96F
330
1F
100
AcDbEntity
  8
0
  6
Continuous
 62
     7
370
    25
100
AcDbLine
 10
261.4125030092
 20
189.3106284413
 30
0.0
 11
261.4976884255
 21
188.6635808161
 31
0.0
  0
LINE
  5
970
330
1F
100
AcDbEntity
  8
0
  6
Continuous
 62
     7
370
    25
100
AcDbLine
 10
261.1627519671
 20
189.9135808452
 30
0.0
 11
261.4125030092
 21
189.3106284413
 31
0.0
  0
LINE
  5
971
330
1F
100
AcDbEntity
  8
0
  6
Continuous
 62
     7
370
    25
100
AcDbLine
 10
260.76545542
 20
190.4313478179
 30
0.0
 11
261.1627519671
 21
189.9135808452
 31
0.0
  0
LINE
  5
972
330
1F
100
AcDbEntity
  8
0
  6
Continuous
 62
     7
370
    25
100
AcDbLine
 10
260.2476884709
 20
190.8286443959
 30
0.0
 11
260.76545542
 21
190.4313478179
 31
0.0
  0
LINE
  5
973
330
1F
100
AcDbEntity
  8
0
  6
Continuous
 62
     7
370
    25
100
AcDbLine
 10
259.6447360819
 20
191.078395474
 30
0.0
 11
260.2476884709
 21
190.8286443959
 31
0.0
  0
LINE
  5
974
330
1F
100
AcDbEntity
  8
0
  6
Continuous
 62
     7
370
    25
100
AcDbLine
 10
258.9976884618
 20
191.1635809288
 30
0.0
 11
259.6447360819
 21
191.078395474
 31
0.0
  0
LINE
  5
975
330
1F
100
AcDbEntity
  8
0
  6
Continuous
 62
     7
370
    25
100
AcDbLine
 10
258.3506408366
 20
191.0783955125
 30
0.0
 11
258.9976884618
 21
191.1635809288
 31
0.0
  0
LINE
  5
976
330
1F
100
AcDbEntity
  8
0
  6
Continuous
 62
     7
370
    25
100
AcDbLine
 10
257.7476884327
 20
190.8286444704
 30
0.0
 11
258.3506408366
 21
191.0783955125
 31
0.0
  0
LINE
  5
977
330
1F
100
AcDbEntity
  8
0
  6
Continuous
 62
     7
370
    25
100
AcDbLine
 10
257.2299214599
 20
190.4313479233
 30
0.0
 11
257.7476884327
 21
190.8286444704
 31
0.0
  0
LINE
  5
978
330
1F
100
AcDbEntity
  8
0
  6
Continuous
 62
     7
370
    25
100
AcDbLine
 10
256.8326248819
 20
189.9135809742
 30
0.0
 11
257.2299214599
 21
190.4313479233
 31
0.0
  0
LINE
  5
979
330
1F
100
AcDbEntity
  8
0
  6
Continuous
 62
     7
370
    25
100
AcDbLine
 10
256.5828738039
 20
189.3106285852
 30
0.0
 11
256.8326248819
 21
189.9135809742
 31
0.0
  0
LINE
  5
97A
330
1F
100
AcDbEntity
  8
0
  6
Continuous
 62
     7
370
    25
100
AcDbLine
 10
256.497688349
 20
188.6635809651
 30
0.0
 11
256.5828738039
 21
189.3106285852
 31
0.0
  0
LINE
  5
97B
330
1F
100
AcDbEntity
  8
0
  6
Continuous
 62
     7
370
    25
100
AcDbLine
 10
256.5828737653
 20
188.0165333399
 30
0.0
 11
256.497688349
 21
188.6635809651
 31
0.0
  0
LINE
  5
97C
330
1F
100
AcDbEntity
  8
0
  6
Continuous
 62
     7
370
    25
100
AcDbLine
 10
256.8326248074
 20
187.413580936
 30
0.0
 11
256.5828737653
 21
188.0165333399
 31
0.0
  0
LINE
  5
97D
330
1F
100
AcDbEntity
  8
0
  6
Continuous
 62
     7
370
    25
100
AcDbLine
 10
257.2299213546
 20
186.8958139632
 30
0.0
 11
256.8326248074
 21
187.413580936
 31
0.0
  0
LINE
  5
97E
330
1F
100
AcDbEntity
  8
0
  6
Continuous
 62
     7
370
    25
100
AcDbLine
 10
278.225044909
 20
142.2898835094
 30
0.0
 11
277.6220925199
 21
142.5396345874
 31
0.0
  0
LINE
  5
97F
330
1F
100
AcDbEntity
  8
0
  6
Continuous
 62
     7
370
    25
100
AcDbLine
 10
278.8720925291
 20
142.2046980545
 30
0.0
 11
278.225044909
 21
142.2898835094
 31
0.0
  0
LINE
  5
980
330
1F
100
AcDbEntity
  8
0
  6
Continuous
 62
     7
370
    25
100
AcDbLine
 10
279.5191401543
 20
142.2898834708
 30
0.0
 11
278.8720925291
 21
142.2046980545
 31
0.0
  0
LINE
  5
981
330
1F
100
AcDbEntity
  8
0
  6
Continuous
 62
     7
370
    25
100
AcDbLine
 10
280.1220925582
 20
142.5396345129
 30
0.0
 11
279.5191401543
 21
142.2898834708
 31
0.0
  0
LINE
  5
982
330
1F
100
AcDbEntity
  8
0
  6
Continuous
 62
     7
370
    25
100
AcDbLine
 10
280.6398595309
 20
142.93693106
 30
0.0
 11
280.1220925582
 21
142.5396345129
 31
0.0
  0
LINE
  5
983
330
1F
100
AcDbEntity
  8
0
  6
Continuous
 62
     7
370
    25
100
AcDbLine
 10
281.0371561089
 20
143.4546980091
 30
0.0
 11
280.6398595309
 21
142.93693106
 31
0.0
  0
LINE
  5
984
330
1F
100
AcDbEntity
  8
0
  6
Continuous
 62
     7
370
    25
100
AcDbLine
 10
281.286907187
 20
144.0576503981
 30
0.0
 11
281.0371561089
 21
143.4546980091
 31
0.0
  0
LINE
  5
985
330
1F
100
AcDbEntity
  8
0
  6
Continuous
 62
     7
370
    25
100
AcDbLine
 10
281.3720926419
 20
144.7046980182
 30
0.0
 11
281.286907187
 21
144.0576503981
 31
0.0
  0
LINE
  5
986
330
1F
100
AcDbEntity
  8
0
  6
Continuous
 62
     7
370
    25
100
AcDbLine
 10
281.2869072256
 20
145.3517456434
 30
0.0
 11
281.3720926419
 21
144.7046980182
 31
0.0
  0
LINE
  5
987
330
1F
100
AcDbEntity
  8
0
  6
Continuous
 62
     7
370
    25
100
AcDbLine
 10
281.0371561835
 20
145.9546980474
 30
0.0
 11
281.2869072256
 21
145.3517456434
 31
0.0
  0
LINE
  5
988
330
1F
100
AcDbEntity
  8
0
  6
Continuous
 62
     7
370
    25
100
AcDbLine
 10
280.6398596363
 20
146.4724650201
 30
0.0
 11
281.0371561835
 21
145.9546980474
 31
0.0
  0
LINE
  5
989
330
1F
100
AcDbEntity
  8
0
  6
Continuous
 62
     7
370
    25
100
AcDbLine
 10
280.1220926873
 20
146.8697615981
 30
0.0
 11
280.6398596363
 21
146.4724650201
 31
0.0
  0
LINE
  5
98A
330
1F
100
AcDbEntity
  8
0
  6
Continuous
 62
     7
370
    25
100
AcDbLine
 10
279.5191402982
 20
147.1195126762
 30
0.0
 11
280.1220926873
 21
146.8697615981
 31
0.0
  0
LINE
  5
98B
330
1F
100
AcDbEntity
  8
0
  6
Continuous
 62
     7
370
    25
100
AcDbLine
 10
278.8720926781
 20
147.204698131
 30
0.0
 11
279.5191402982
 21
147.1195126762
 31
0.0
  0
LINE
  5
98C
330
1F
100
AcDbEntity
  8
0
  6
Continuous
 62
     7
370
    25
100
AcDbLine
 10
278.2250450529
 20
147.1195127147
 30
0.0
 11
278.8720926781
 21
147.204698131
 31
0.0
  0
LINE
  5
98D
330
1F
100
AcDbEntity
  8
0
  6
Continuous
 62
     7
370
    25
100
AcDbLine
 10
277.622092649
 20
146.8697616726
 30
0.0
 11
278.2250450529
 21
147.1195127147
 31
0.0
  0
LINE
  5
98E
330
1F
100
AcDbEntity
  8
0
  6
Continuous
 62
     7
370
    25
100
AcDbLine
 10
277.1043256763
 20
146.4724651255
 30
0.0
 11
277.622092649
 21
146.8697616726
 31
0.0
  0
LINE
  5
98F
330
1F
100
AcDbEntity
  8
0
  6
Continuous
 62
     7
370
    25
100
AcDbLine
 10
276.7070290983
 20
145.9546981764
 30
0.0
 11
277.1043256763
 21
146.4724651255
 31
0.0
  0
LINE
  5
990
330
1F
100
AcDbEntity
  8
0
  6
Continuous
 62
     7
370
    25
100
AcDbLine
 10
276.4572780202
 20
145.3517457874
 30
0.0
 11
276.7070290983
 21
145.9546981764
 31
0.0
  0
LINE
  5
991
330
1F
100
AcDbEntity
  8
0
  6
Continuous
 62
     7
370
    25
100
AcDbLine
 10
276.3720925653
 20
144.7046981673
 30
0.0
 11
276.4572780202
 21
145.3517457874
 31
0.0
  0
LINE
  5
992
330
1F
100
AcDbEntity
  8
0
  6
Continuous
 62
     7
370
    25
100
AcDbLine
 10
276.4572779816
 20
144.0576505421
 30
0.0
 11
276.3720925653
 21
144.7046981673
 31
0.0
  0
LINE
  5
993
330
1F
100
AcDbEntity
  8
0
  6
Continuous
 62
     7
370
    25
100
AcDbLine
 10
276.7070290238
 20
143.4546981381
 30
0.0
 11
276.4572779816
 21
144.0576505421
 31
0.0
  0
LINE
  5
994
330
1F
100
AcDbEntity
  8
0
  6
Continuous
 62
     7
370
    25
100
AcDbLine
 10
277.1043255709
 20
142.9369311654
 30
0.0
 11
276.7070290238
 21
143.4546981381
 31
0.0
  0
LINE
  5
995
330
1F
100
AcDbEntity
  8
0
  6
Continuous
 62
     7
370
    25
100
AcDbLine
 10
277.6220925199
 20
142.5396345874
 30
0.0
 11
277.1043255709
 21
142.9369311654
 31
0.0
  0
LINE
  5
996
330
1F
100
AcDbEntity
  8
0
  6
Continuous
 62
     7
370
    25
100
AcDbLine
 10
130.8791398304
 20
114.1650720738
 30
0.0
 11
131.4820922179
 21
113.9153210174
 31
0.0
  0
LINE
  5
997
330
1F
100
AcDbEntity
  8
0
  6
Continuous
 62
     7
370
    25
100
AcDbLine
 10
130.2320922173
 20
114.2502575081
 30
0.0
 11
130.8791398304
 21
114.1650720738
 31
0.0
  0
LINE
  5
998
330
1F
100
AcDbEntity
  8
0
  6
Continuous
 62
     7
370
    25
100
AcDbLine
 10
129.5850446042
 20
114.1650720738
 30
0.0
 11
130.2320922173
 21
114.2502575081
 31
0.0
  0
LINE
  5
999
330
1F
100
AcDbEntity
  8
0
  6
Continuous
 62
     7
370
    25
100
AcDbLine
 10
128.9820922166
 20
113.9153210174
 30
0.0
 11
129.5850446042
 21
114.1650720738
 31
0.0
  0
LINE
  5
99A
330
1F
100
AcDbEntity
  8
0
  6
Continuous
 62
     7
370
    25
100
AcDbLine
 10
128.4643252634
 20
113.5180244607
 30
0.0
 11
128.9820922166
 21
113.9153210174
 31
0.0
  0
LINE
  5
99B
330
1F
100
AcDbEntity
  8
0
  6
Continuous
 62
     7
370
    25
100
AcDbLine
 10
128.0670287067
 20
113.0002575075
 30
0.0
 11
128.4643252634
 21
113.5180244607
 31
0.0
  0
LINE
  5
99C
330
1F
100
AcDbEntity
  8
0
  6
Continuous
 62
     7
370
    25
100
AcDbLine
 10
127.8172776503
 20
112.3973051199
 30
0.0
 11
128.0670287067
 21
113.0002575075
 31
0.0
  0
LINE
  5
99D
330
1F
100
AcDbEntity
  8
0
  6
Continuous
 62
     7
370
    25
100
AcDbLine
 10
127.732092216
 20
111.7502575068
 30
0.0
 11
127.8172776503
 21
112.3973051199
 31
0.0
  0
LINE
  5
99E
330
1F
100
AcDbEntity
  8
0
  6
Continuous
 62
     7
370
    25
100
AcDbLine
 10
127.8172776503
 20
111.1032098937
 30
0.0
 11
127.732092216
 21
111.7502575068
 31
0.0
  0
LINE
  5
99F
330
1F
100
AcDbEntity
  8
0
  6
Continuous
 62
     7
370
    25
100
AcDbLine
 10
128.0670287067
 20
110.5002575062
 30
0.0
 11
127.8172776503
 21
111.1032098937
 31
0.0
  0
LINE
  5
9A0
330
1F
100
AcDbEntity
  8
0
  6
Continuous
 62
     7
370
    25
100
AcDbLine
 10
128.4643252634
 20
109.982490553
 30
0.0
 11
128.0670287067
 21
110.5002575062
 31
0.0
  0
LINE
  5
9A1
330
1F
100
AcDbEntity
  8
0
  6
Continuous
 62
     7
370
    25
100
AcDbLine
 10
128.9820922166
 20
109.5851939963
 30
0.0
 11
128.4643252634
 21
109.982490553
 31
0.0
  0
LINE
  5
9A2
330
1F
100
AcDbEntity
  8
0
  6
Continuous
 62
     7
370
    25
100
AcDbLine
 10
129.5850446042
 20
109.3354429399
 30
0.0
 11
128.9820922166
 21
109.5851939963
 31
0.0
  0
LINE
  5
9A3
330
1F
100
AcDbEntity
  8
0
  6
Continuous
 62
     7
370
    25
100
AcDbLine
 10
130.2320922173
 20
109.2502575056
 30
0.0
 11
129.5850446042
 21
109.3354429399
 31
0.0
  0
LINE
  5
9A4
330
1F
100
AcDbEntity
  8
0
  6
Continuous
 62
     7
370
    25
100
AcDbLine
 10
130.8791398304
 20
109.3354429399
 30
0.0
 11
130.2320922173
 21
109.2502575056
 31
0.0
  0
LINE
  5
9A5
330
1F
100
AcDbEntity
  8
0
  6
Continuous
 62
     7
370
    25
100
AcDbLine
 10
131.4820922179
 20
109.5851939963
 30
0.0
 11
130.8791398304
 21
109.3354429399
 31
0.0
  0
LINE
  5
9A6
330
1F
100
AcDbEntity
  8
0
  6
Continuous
 62
     7
370
    25
100
AcDbLine
 10
131.9998591711
 20
109.982490553
 30
0.0
 11
131.4820922179
 21
109.5851939963
 31
0.0
  0
LINE
  5
9A7
330
1F
100
AcDbEntity
  8
0
  6
Continuous
 62
     7
370
    25
100
AcDbLine
 10
132.3971557278
 20
110.5002575062
 30
0.0
 11
131.9998591711
 21
109.982490553
 31
0.0
  0
LINE
  5
9A8
330
1F
100
AcDbEntity
  8
0
  6
Continuous
 62
     7
370
    25
100
AcDbLine
 10
132.6469067842
 20
111.1032098937
 30
0.0
 11
132.3971557278
 21
110.5002575062
 31
0.0
  0
LINE
  5
9A9
330
1F
100
AcDbEntity
  8
0
  6
Continuous
 62
     7
370
    25
100
AcDbLine
 10
132.7320922185
 20
111.7502575068
 30
0.0
 11
132.6469067842
 21
111.1032098937
 31
0.0
  0
LINE
  5
9AA
330
1F
100
AcDbEntity
  8
0
  6
Continuous
 62
     7
370
    25
100
AcDbLine
 10
132.6469067842
 20
112.3973051199
 30
0.0
 11
132.7320922185
 21
111.7502575068
 31
0.0
  0
LINE
  5
9AB
330
1F
100
AcDbEntity
  8
0
  6
Continuous
 62
     7
370
    25
100
AcDbLine
 10
132.3971557278
 20
113.0002575075
 30
0.0
 11
132.6469067842
 21
112.3973051199
 31
0.0
  0
LINE
  5
9AC
330
1F
100
AcDbEntity
  8
0
  6
Continuous
 62
     7
370
    25
100
AcDbLine
 10
131.9998591711
 20
113.5180244607
 30
0.0
 11
132.3971557278
 21
113.0002575075
 31
0.0
  0
LINE
  5
9AD
330
1F
100
AcDbEntity
  8
0
  6
Continuous
 62
     7
370
    25
100
AcDbLine
 10
131.4820922179
 20
113.9153210174
 30
0.0
 11
131.9998591711
 21
113.5180244607
 31
0.0
  0
LINE
  5
9AE
330
1F
100
AcDbEntity
  8
0
  6
Continuous
 62
     7
370
    25
100
AcDbLine
 10
277.3035922177
 20
12.3887570851
 30
0.0
 11
277.4251859066
 21
13.3123528476
 31
0.0
  0
LINE
  5
9AF
330
1F
100
AcDbEntity
  8
0
  6
Continuous
 62
     7
370
    25
100
AcDbLine
 10
277.4251859066
 20
11.4651613225
 30
0.0
 11
277.3035922177
 21
12.3887570851
 31
0.0
  0
LINE
  5
9B0
330
1F
100
AcDbEntity
  8
0
  6
Continuous
 62
     7
370
    25
100
AcDbLine
 10
277.7816805643
 20
10.6045070849
 30
0.0
 11
277.4251859066
 21
11.4651613225
 31
0.0
  0
LINE
  5
9B1
330
1F
100
AcDbEntity
  8
0
  6
Continuous
 62
     7
370
    25
100
AcDbLine
 10
278.3487816691
 20
9.8654465361
 30
0.0
 11
277.7816805643
 21
10.6045070849
 31
0.0
  0
LINE
  5
9B2
330
1F
100
AcDbEntity
  8
0
  6
Continuous
 62
     7
370
    25
100
AcDbLine
 10
279.0878422179
 20
9.2983454313
 30
0.0
 11
278.3487816691
 21
9.8654465361
 31
0.0
  0
LINE
  5
9B3
330
1F
100
AcDbEntity
  8
0
  6
Continuous
 62
     7
370
    25
100
AcDbLine
 10
279.9484964555
 20
8.9418507736
 30
0.0
 11
279.0878422179
 21
9.2983454313
 31
0.0
  0
LINE
  5
9B4
330
1F
100
AcDbEntity
  8
0
  6
Continuous
 62
     7
370
    25
100
AcDbLine
 10
280.8720922181
 20
8.8202570847
 30
0.0
 11
279.9484964555
 21
8.9418507736
 31
0.0
  0
LINE
  5
9B5
330
1F
100
AcDbEntity
  8
0
  6
Continuous
 62
     7
370
    25
100
AcDbLine
 10
281.7956879806
 20
8.9418507736
 30
0.0
 11
280.8720922181
 21
8.8202570847
 31
0.0
  0
LINE
  5
9B6
330
1F
100
AcDbEntity
  8
0
  6
Continuous
 62
     7
370
    25
100
AcDbLine
 10
282.6563422183
 20
9.2983454313
 30
0.0
 11
281.7956879806
 21
8.9418507736
 31
0.0
  0
LINE
  5
9B7
330
1F
100
AcDbEntity
  8
0
  6
Continuous
 62
     7
370
    25
100
AcDbLine
 10
283.395402767
 20
9.8654465361
 30
0.0
 11
282.6563422183
 21
9.2983454313
 31
0.0
  0
LINE
  5
9B8
330
1F
100
AcDbEntity
  8
0
  6
Continuous
 62
     7
370
    25
100
AcDbLine
 10
283.9625038718
 20
10.6045070849
 30
0.0
 11
283.395402767
 21
9.8654465361
 31
0.0
  0
LINE
  5
9B9
330
1F
100
AcDbEntity
  8
0
  6
Continuous
 62
     7
370
    25
100
AcDbLine
 10
284.3189985296
 20
11.4651613225
 30
0.0
 11
283.9625038718
 21
10.6045070849
 31
0.0
  0
LINE
  5
9BA
330
1F
100
AcDbEntity
  8
0
  6
Continuous
 62
     7
370
    25
100
AcDbLine
 10
284.4405922185
 20
12.3887570851
 30
0.0
 11
284.3189985296
 21
11.4651613225
 31
0.0
  0
LINE
  5
9BB
330
1F
100
AcDbEntity
  8
0
  6
Continuous
 62
     7
370
    25
100
AcDbLine
 10
284.3189985296
 20
13.3123528476
 30
0.0
 11
284.4405922185
 21
12.3887570851
 31
0.0
  0
LINE
  5
9BC
330
1F
100
AcDbEntity
  8
0
  6
Continuous
 62
     7
370
    25
100
AcDbLine
 10
283.9625038718
 20
14.1730070853
 30
0.0
 11
284.3189985296
 21
13.3123528476
 31
0.0
  0
LINE
  5
9BD
330
1F
100
AcDbEntity
  8
0
  6
Continuous
 62
     7
370
    25
100
AcDbLine
 10
283.395402767
 20
14.912067634
 30
0.0
 11
283.9625038718
 21
14.1730070853
 31
0.0
  0
LINE
  5
9BE
330
1F
100
AcDbEntity
  8
0
  6
Continuous
 62
     7
370
    25
100
AcDbLine
 10
282.6563422183
 20
15.4791687388
 30
0.0
 11
283.395402767
 21
14.912067634
 31
0.0
  0
LINE
  5
9BF
330
1F
100
AcDbEntity
  8
0
  6
Continuous
 62
     7
370
    25
100
AcDbLine
 10
281.7956879806
 20
15.8356633966
 30
0.0
 11
282.6563422183
 21
15.4791687388
 31
0.0
  0
LINE
  5
9C0
330
1F
100
AcDbEntity
  8
0
  6
Continuous
 62
     7
370
    25
100
AcDbLine
 10
280.8720922181
 20
15.9572570855
 30
0.0
 11
281.7956879806
 21
15.8356633966
 31
0.0
  0
LINE
  5
9C1
330
1F
100
AcDbEntity
  8
0
  6
Continuous
 62
     7
370
    25
100
AcDbLine
 10
279.9484964555
 20
15.8356633966
 30
0.0
 11
280.8720922181
 21
15.9572570855
 31
0.0
  0
LINE
  5
9C2
330
1F
100
AcDbEntity
  8
0
  6
Continuous
 62
     7
370
    25
100
AcDbLine
 10
279.0878422179
 20
15.4791687388
 30
0.0
 11
279.9484964555
 21
15.8356633966
 31
0.0
  0
LINE
  5
9C3
330
1F
100
AcDbEntity
  8
0
  6
Continuous
 62
     7
370
    25
100
AcDbLine
 10
278.3487816691
 20
14.912067634
 30
0.0
 11
279.0878422179
 21
15.4791687388
 31
0.0
  0
LINE
  5
9C4
330
1F
100
AcDbEntity
  8
0
  6
Continuous
 62
     7
370
    25
100
AcDbLine
 10
277.7816805643
 20
14.1730070853
 30
0.0
 11
278.3487816691
 21
14.912067634
 31
0.0
  0
LINE
  5
9C5
330
1F
100
AcDbEntity
  8
0
  6
Continuous
 62
     7
370
    25
100
AcDbLine
 10
277.4251859066
 20
13.3123528476
 30
0.0
 11
277.7816805643
 21
14.1730070853
 31
0.0
  0
LINE
  5
9C6
330
1F
100
AcDbEntity
  8
0
  6
Continuous
 62
     7
370
    25
100
AcDbLine
 10
254.1415572764
 20
201.1621506569
 30
0.0
 11
253.8004787754
 21
201.3900520251
 31
0.0
  0
LINE
  5
9C7
330
1F
100
AcDbEntity
  8
0
  6
Continuous
 62
     7
370
    25
100
AcDbLine
 10
254.5094649013
 20
200.9807186945
 30
0.0
 11
254.1415572764
 21
201.1621506569
 31
0.0
  0
LINE
  5
9C8
330
1F
100
AcDbEntity
  8
0
  6
Continuous
 62
     7
370
    25
100
AcDbLine
 10
254.8979066488
 20
200.848860489
 30
0.0
 11
254.5094649013
 21
200.9807186945
 31
0.0
  0
LINE
  5
9C9
330
1F
100
AcDbEntity
  8
0
  6
Continuous
 62
     7
370
    25
100
AcDbLine
 10
255.3002361727
 20
200.7688321709
 30
0.0
 11
254.8979066488
 21
200.848860489
 31
0.0
  0
LINE
  5
9CA
330
1F
100
AcDbEntity
  8
0
  6
Continuous
 62
     7
370
    25
100
AcDbLine
 10
255.7095695034
 20
200.742003047
 30
0.0
 11
255.3002361727
 21
200.7688321709
 31
0.0
  0
LINE
  5
9CB
330
1F
100
AcDbEntity
  8
0
  6
Continuous
 62
     7
370
    25
100
AcDbLine
 10
282.9375205954
 20
200.742003047
 30
0.0
 11
255.7095695034
 21
200.742003047
 31
0.0
  0
LINE
  5
9CC
330
1F
100
AcDbEntity
  8
0
  6
Continuous
 62
     7
370
    25
100
AcDbLine
 10
283.3468539261
 20
200.7688321709
 30
0.0
 11
282.9375205954
 21
200.742003047
 31
0.0
  0
LINE
  5
9CD
330
1F
100
AcDbEntity
  8
0
  6
Continuous
 62
     7
370
    25
100
AcDbLine
 10
283.74918345
 20
200.848860489
 30
0.0
 11
283.3468539261
 21
200.7688321709
 31
0.0
  0
LINE
  5
9CE
330
1F
100
AcDbEntity
  8
0
  6
Continuous
 62
     7
370
    25
100
AcDbLine
 10
284.1376251974
 20
200.9807186945
 30
0.0
 11
283.74918345
 21
200.848860489
 31
0.0
  0
LINE
  5
9CF
330
1F
100
AcDbEntity
  8
0
  6
Continuous
 62
     7
370
    25
100
AcDbLine
 10
284.5055328224
 20
201.1621506569
 30
0.0
 11
284.1376251974
 21
200.9807186945
 31
0.0
  0
LINE
  5
9D0
330
1F
100
AcDbEntity
  8
0
  6
Continuous
 62
     7
370
    25
100
AcDbLine
 10
284.8466113234
 20
201.3900520252
 30
0.0
 11
284.5055328224
 21
201.1621506569
 31
0.0
  0
LINE
  5
9D1
330
1F
100
AcDbEntity
  8
0
  6
Continuous
 62
     7
370
    25
100
AcDbLine
 10
285.1550247528
 20
201.6605233436
 30
0.0
 11
284.8466113234
 21
201.3900520252
 31
0.0
  0
LINE
  5
9D2
330
1F
100
AcDbEntity
  8
0
  6
Continuous
 62
     7
370
    25
100
AcDbLine
 10
285.4254960712
 20
201.9689367729
 30
0.0
 11
285.1550247528
 21
201.6605233436
 31
0.0
  0
LINE
  5
9D3
330
1F
100
AcDbEntity
  8
0
  6
Continuous
 62
     7
370
    25
100
AcDbLine
 10
285.6533974394
 20
202.310015274
 30
0.0
 11
285.4254960712
 21
201.9689367729
 31
0.0
  0
LINE
  5
9D4
330
1F
100
AcDbEntity
  8
0
  6
Continuous
 62
     7
370
    25
100
AcDbLine
 10
285.8348294019
 20
202.6779228989
 30
0.0
 11
285.6533974394
 21
202.310015274
 31
0.0
  0
LINE
  5
9D5
330
1F
100
AcDbEntity
  8
0
  6
Continuous
 62
     7
370
    25
100
AcDbLine
 10
285.9666876074
 20
203.0663646464
 30
0.0
 11
285.8348294019
 21
202.6779228989
 31
0.0
  0
LINE
  5
9D6
330
1F
100
AcDbEntity
  8
0
  6
Continuous
 62
     7
370
    25
100
AcDbLine
 10
286.0467159254
 20
203.4686941703
 30
0.0
 11
285.9666876074
 21
203.0663646464
 31
0.0
  0
LINE
  5
9D7
330
1F
100
AcDbEntity
  8
0
  6
Continuous
 62
     7
370
    25
100
AcDbLine
 10
286.0735450494
 20
203.878027501
 30
0.0
 11
286.0467159254
 21
203.4686941703
 31
0.0
  0
LINE
  5
9D8
330
1F
100
AcDbEntity
  8
0
  6
Continuous
 62
     7
370
    25
100
AcDbLine
 10
286.0735450494
 20
210.0657254747
 30
0.0
 11
286.0735450494
 21
203.878027501
 31
0.0
  0
LINE
  5
9D9
330
1F
100
AcDbEntity
  8
0
  6
Continuous
 62
     7
370
    25
100
AcDbLine
 10
286.0166609414
 20
210.9336092504
 30
0.0
 11
286.0735450494
 21
210.0657254747
 31
0.0
  0
LINE
  5
9DA
330
1F
100
AcDbEntity
  8
0
  6
Continuous
 62
     7
370
    25
100
AcDbLine
 10
285.8469819203
 20
211.7866432941
 30
0.0
 11
286.0166609414
 21
210.9336092504
 31
0.0
  0
LINE
  5
9DB
330
1F
100
AcDbEntity
  8
0
  6
Continuous
 62
     7
370
    25
100
AcDbLine
 10
285.5674112412
 20
212.6102319568
 30
0.0
 11
285.8469819203
 21
211.7866432941
 31
0.0
  0
LINE
  5
9DC
330
1F
100
AcDbEntity
  8
0
  6
Continuous
 62
     7
370
    25
100
AcDbLine
 10
285.1827324359
 20
213.390283408
 30
0.0
 11
285.5674112412
 21
212.6102319568
 31
0.0
  0
LINE
  5
9DD
330
1F
100
AcDbEntity
  8
0
  6
Continuous
 62
     7
370
    25
100
AcDbLine
 10
284.6995274655
 20
214.1134507514
 30
0.0
 11
285.1827324359
 21
213.390283408
 31
0.0
  0
LINE
  5
9DE
330
1F
100
AcDbEntity
  8
0
  6
Continuous
 62
     7
370
    25
100
AcDbLine
 10
284.1260641009
 20
214.7673603929
 30
0.0
 11
284.6995274655
 21
214.1134507514
 31
0.0
  0
LINE
  5
9DF
330
1F
100
AcDbEntity
  8
0
  6
Continuous
 62
     7
370
    25
100
AcDbLine
 10
283.4721544593
 20
215.3408237575
 30
0.0
 11
284.1260641009
 21
214.7673603929
 31
0.0
  0
LINE
  5
9E0
330
1F
100
AcDbEntity
  8
0
  6
Continuous
 62
     7
370
    25
100
AcDbLine
 10
282.748987116
 20
215.824028728
 30
0.0
 11
283.4721544593
 21
215.3408237575
 31
0.0
  0
LINE
  5
9E1
330
1F
100
AcDbEntity
  8
0
  6
Continuous
 62
     7
370
    25
100
AcDbLine
 10
281.9689356647
 20
216.2087075332
 30
0.0
 11
282.748987116
 21
215.824028728
 31
0.0
  0
LINE
  5
9E2
330
1F
100
AcDbEntity
  8
0
  6
Continuous
 62
     7
370
    25
100
AcDbLine
 10
281.1453470021
 20
216.4882782123
 30
0.0
 11
281.9689356647
 21
216.2087075332
 31
0.0
  0
LINE
  5
9E3
330
1F
100
AcDbEntity
  8
0
  6
Continuous
 62
     7
370
    25
100
AcDbLine
 10
280.2923129584
 20
216.6579572334
 30
0.0
 11
281.1453470021
 21
216.4882782123
 31
0.0
  0
LINE
  5
9E4
330
1F
100
AcDbEntity
  8
0
  6
Continuous
 62
     7
370
    25
100
AcDbLine
 10
279.4244291827
 20
216.7148413414
 30
0.0
 11
280.2923129584
 21
216.6579572334
 31
0.0
  0
LINE
  5
9E5
330
1F
100
AcDbEntity
  8
0
  6
Continuous
 62
     7
370
    25
100
AcDbLine
 10
255.7095695034
 20
216.7148413414
 30
0.0
 11
279.4244291827
 21
216.7148413414
 31
0.0
  0
LINE
  5
9E6
330
1F
100
AcDbEntity
  8
0
  6
Continuous
 62
     7
370
    25
100
AcDbLine
 10
255.3002361727
 20
216.6880122175
 30
0.0
 11
255.7095695034
 21
216.7148413414
 31
0.0
  0
LINE
  5
9E7
330
1F
100
AcDbEntity
  8
0
  6
Continuous
 62
     7
370
    25
100
AcDbLine
 10
254.8979066488
 20
216.6079838994
 30
0.0
 11
255.3002361727
 21
216.6880122175
 31
0.0
  0
LINE
  5
9E8
330
1F
100
AcDbEntity
  8
0
  6
Continuous
 62
     7
370
    25
100
AcDbLine
 10
254.5094649013
 20
216.4761256939
 30
0.0
 11
254.8979066488
 21
216.6079838994
 31
0.0
  0
LINE
  5
9E9
330
1F
100
AcDbEntity
  8
0
  6
Continuous
 62
     7
370
    25
100
AcDbLine
 10
254.1415572764
 20
216.2946937315
 30
0.0
 11
254.5094649013
 21
216.4761256939
 31
0.0
  0
LINE
  5
9EA
330
1F
100
AcDbEntity
  8
0
  6
Continuous
 62
     7
370
    25
100
AcDbLine
 10
253.8004787753
 20
216.0667923632
 30
0.0
 11
254.1415572764
 21
216.2946937315
 31
0.0
  0
LINE
  5
9EB
330
1F
100
AcDbEntity
  8
0
  6
Continuous
 62
     7
370
    25
100
AcDbLine
 10
253.492065346
 20
215.7963210448
 30
0.0
 11
253.8004787753
 21
216.0667923632
 31
0.0
  0
LINE
  5
9EC
330
1F
100
AcDbEntity
  8
0
  6
Continuous
 62
     7
370
    25
100
AcDbLine
 10
253.2215940276
 20
215.4879076154
 30
0.0
 11
253.492065346
 21
215.7963210448
 31
0.0
  0
LINE
  5
9ED
330
1F
100
AcDbEntity
  8
0
  6
Continuous
 62
     7
370
    25
100
AcDbLine
 10
252.9936926593
 20
215.1468291144
 30
0.0
 11
253.2215940276
 21
215.4879076154
 31
0.0
  0
LINE
  5
9EE
330
1F
100
AcDbEntity
  8
0
  6
Continuous
 62
     7
370
    25
100
AcDbLine
 10
252.8122606969
 20
214.7789214894
 30
0.0
 11
252.9936926593
 21
215.1468291144
 31
0.0
  0
LINE
  5
9EF
330
1F
100
AcDbEntity
  8
0
  6
Continuous
 62
     7
370
    25
100
AcDbLine
 10
252.6804024914
 20
214.390479742
 30
0.0
 11
252.8122606969
 21
214.7789214894
 31
0.0
  0
LINE
  5
9F0
330
1F
100
AcDbEntity
  8
0
  6
Continuous
 62
     7
370
    25
100
AcDbLine
 10
252.6003741733
 20
213.9881502181
 30
0.0
 11
252.6804024914
 21
214.390479742
 31
0.0
  0
LINE
  5
9F1
330
1F
100
AcDbEntity
  8
0
  6
Continuous
 62
     7
370
    25
100
AcDbLine
 10
252.5735450494
 20
213.5788168874
 30
0.0
 11
252.6003741733
 21
213.9881502181
 31
0.0
  0
LINE
  5
9F2
330
1F
100
AcDbEntity
  8
0
  6
Continuous
 62
     7
370
    25
100
AcDbLine
 10
252.5735450494
 20
203.878027501
 30
0.0
 11
252.5735450494
 21
213.5788168874
 31
0.0
  0
LINE
  5
9F3
330
1F
100
AcDbEntity
  8
0
  6
Continuous
 62
     7
370
    25
100
AcDbLine
 10
252.6003741733
 20
203.4686941703
 30
0.0
 11
252.5735450494
 21
203.878027501
 31
0.0
  0
LINE
  5
9F4
330
1F
100
AcDbEntity
  8
0
  6
Continuous
 62
     7
370
    25
100
AcDbLine
 10
252.6804024914
 20
203.0663646464
 30
0.0
 11
252.6003741733
 21
203.4686941703
 31
0.0
  0
LINE
  5
9F5
330
1F
100
AcDbEntity
  8
0
  6
Continuous
 62
     7
370
    25
100
AcDbLine
 10
252.8122606969
 20
202.6779228989
 30
0.0
 11
252.6804024914
 21
203.0663646464
 31
0.0
  0
LINE
  5
9F6
330
1F
100
AcDbEntity
  8
0
  6
Continuous
 62
     7
370
    25
100
AcDbLine
 10
252.9936926593
 20
202.310015274
 30
0.0
 11
252.8122606969
 21
202.6779228989
 31
0.0
  0
LINE
  5
9F7
330
1F
100
AcDbEntity
  8
0
  6
Continuous
 62
     7
370
    25
100
AcDbLine
 10
253.2215940276
 20
201.9689367729
 30
0.0
 11
252.9936926593
 21
202.310015274
 31
0.0
  0
LINE
  5
9F8
330
1F
100
AcDbEntity
  8
0
  6
Continuous
 62
     7
370
    25
100
AcDbLine
 10
253.492065346
 20
201.6605233436
 30
0.0
 11
253.2215940276
 21
201.9689367729
 31
0.0
  0
LINE
  5
9F9
330
1F
100
AcDbEntity
  8
0
  6
Continuous
 62
     7
370
    25
100
AcDbLine
 10
253.8004787754
 20
201.3900520251
 30
0.0
 11
253.492065346
 21
201.6605233436
 31
0.0
  0
LINE
  5
9FA
330
1F
100
AcDbEntity
  8
0
  6
Continuous
 62
     7
370
    25
100
AcDbLine
 10
243.7854439392
 20
219.0326819929
 30
0.0
 11
243.966962858
 21
218.911394929
 31
0.0
  0
LINE
  5
9FB
330
1F
100
AcDbEntity
  8
0
  6
Continuous
 62
     7
370
    25
100
AcDbLine
 10
243.5896468013
 20
219.1292384558
 30
0.0
 11
243.7854439392
 21
219.0326819929
 31
0.0
  0
LINE
  5
9FC
330
1F
100
AcDbEntity
  8
0
  6
Continuous
 62
     7
370
    25
100
AcDbLine
 10
243.3829215877
 20
219.19941221
 30
0.0
 11
243.5896468013
 21
219.1292384558
 31
0.0
  0
LINE
  5
9FD
330
1F
100
AcDbEntity
  8
0
  6
Continuous
 62
     7
370
    25
100
AcDbLine
 10
243.1688054239
 20
219.242002563
 30
0.0
 11
243.3829215877
 21
219.19941221
 31
0.0
  0
LINE
  5
9FE
330
1F
100
AcDbEntity
  8
0
  6
Continuous
 62
     7
370
    25
100
AcDbLine
 10
234.0710465388
 20
219.242002563
 30
0.0
 11
243.1688054239
 21
219.242002563
 31
0.0
  0
LINE
  5
9FF
330
1F
100
AcDbEntity
  8
0
  6
Continuous
 62
     7
370
    25
100
AcDbLine
 10
233.8569303751
 20
219.19941221
 30
0.0
 11
234.0710465388
 21
219.242002563
 31
0.0
  0
LINE
  5
A00
330
1F
100
AcDbEntity
  8
0
  6
Continuous
 62
     7
370
    25
100
AcDbLine
 10
233.6502051614
 20
219.1292384558
 30
0.0
 11
233.8569303751
 21
219.19941221
 31
0.0
  0
LINE
  5
A01
330
1F
100
AcDbEntity
  8
0
  6
Continuous
 62
     7
370
    25
100
AcDbLine
 10
233.4544080235
 20
219.0326819929
 30
0.0
 11
233.6502051614
 21
219.1292384558
 31
0.0
  0
LINE
  5
A02
330
1F
100
AcDbEntity
  8
0
  6
Continuous
 62
     7
370
    25
100
AcDbLine
 10
233.2728891047
 20
218.911394929
 30
0.0
 11
233.4544080235
 21
219.0326819929
 31
0.0
  0
LINE
  5
A03
330
1F
100
AcDbEntity
  8
0
  6
Continuous
 62
     7
370
    25
100
AcDbLine
 10
233.1087542441
 20
218.7674525194
 30
0.0
 11
233.2728891047
 21
218.911394929
 31
0.0
  0
LINE
  5
A04
330
1F
100
AcDbEntity
  8
0
  6
Continuous
 62
     7
370
    25
100
AcDbLine
 10
232.9648118346
 20
218.6033176588
 30
0.0
 11
233.1087542441
 21
218.7674525194
 31
0.0
  0
LINE
  5
A05
330
1F
100
AcDbEntity
  8
0
  6
Continuous
 62
     7
370
    25
100
AcDbLine
 10
232.8435247707
 20
218.42179874
 30
0.0
 11
232.9648118346
 21
218.6033176588
 31
0.0
  0
LINE
  5
A06
330
1F
100
AcDbEntity
  8
0
  6
Continuous
 62
     7
370
    25
100
AcDbLine
 10
232.7469683077
 20
218.2260016021
 30
0.0
 11
232.8435247707
 21
218.42179874
 31
0.0
  0
LINE
  5
A07
330
1F
100
AcDbEntity
  8
0
  6
Continuous
 62
     7
370
    25
100
AcDbLine
 10
232.6767945535
 20
218.0192763885
 30
0.0
 11
232.7469683077
 21
218.2260016021
 31
0.0
  0
LINE
  5
A08
330
1F
100
AcDbEntity
  8
0
  6
Continuous
 62
     7
370
    25
100
AcDbLine
 10
232.6342042005
 20
217.8051602247
 30
0.0
 11
232.6767945535
 21
218.0192763885
 31
0.0
  0
LINE
  5
A09
330
1F
100
AcDbEntity
  8
0
  6
Continuous
 62
     7
370
    25
100
AcDbLine
 10
232.6199259814
 20
215.90471404
 30
0.0
 11
232.6342042005
 21
217.8051602247
 31
0.0
  0
LINE
  5
A0A
330
1F
100
AcDbEntity
  8
0
  6
Continuous
 62
     7
370
    25
100
AcDbLine
 10
232.6767945535
 20
215.4727543494
 30
0.0
 11
232.6199259814
 21
215.90471404
 31
0.0
  0
LINE
  5
A0B
330
1F
100
AcDbEntity
  8
0
  6
Continuous
 62
     7
370
    25
100
AcDbLine
 10
232.7469683077
 20
215.2660291357
 30
0.0
 11
232.6767945535
 21
215.4727543494
 31
0.0
  0
LINE
  5
A0C
330
1F
100
AcDbEntity
  8
0
  6
Continuous
 62
     7
370
    25
100
AcDbLine
 10
232.8435247707
 20
215.0702319979
 30
0.0
 11
232.7469683077
 21
215.2660291357
 31
0.0
  0
LINE
  5
A0D
330
1F
100
AcDbEntity
  8
0
  6
Continuous
 62
     7
370
    25
100
AcDbLine
 10
232.9648118346
 20
214.8887130791
 30
0.0
 11
232.8435247707
 21
215.0702319979
 31
0.0
  0
LINE
  5
A0E
330
1F
100
AcDbEntity
  8
0
  6
Continuous
 62
     7
370
    25
100
AcDbLine
 10
233.1087542441
 20
214.7245782185
 30
0.0
 11
232.9648118346
 21
214.8887130791
 31
0.0
  0
LINE
  5
A0F
330
1F
100
AcDbEntity
  8
0
  6
Continuous
 62
     7
370
    25
100
AcDbLine
 10
233.2728891047
 20
214.5806358089
 30
0.0
 11
233.1087542441
 21
214.7245782185
 31
0.0
  0
LINE
  5
A10
330
1F
100
AcDbEntity
  8
0
  6
Continuous
 62
     7
370
    25
100
AcDbLine
 10
233.4544080235
 20
214.459348745
 30
0.0
 11
233.2728891047
 21
214.5806358089
 31
0.0
  0
LINE
  5
A11
330
1F
100
AcDbEntity
  8
0
  6
Continuous
 62
     7
370
    25
100
AcDbLine
 10
233.6502051614
 20
214.362792282
 30
0.0
 11
233.4544080235
 21
214.459348745
 31
0.0
  0
LINE
  5
A12
330
1F
100
AcDbEntity
  8
0
  6
Continuous
 62
     7
370
    25
100
AcDbLine
 10
233.8569303751
 20
214.2926185278
 30
0.0
 11
233.6502051614
 21
214.362792282
 31
0.0
  0
LINE
  5
A13
330
1F
100
AcDbEntity
  8
0
  6
Continuous
 62
     7
370
    25
100
AcDbLine
 10
234.2888900657
 20
214.2357499557
 30
0.0
 11
233.8569303751
 21
214.2926185278
 31
0.0
  0
LINE
  5
A14
330
1F
100
AcDbEntity
  8
0
  6
Continuous
 62
     7
370
    25
100
AcDbLine
 10
242.1988265844
 20
214.24645862
 30
0.0
 11
234.2888900657
 21
214.2357499557
 31
0.0
  0
LINE
  5
A15
330
1F
100
AcDbEntity
  8
0
  6
Continuous
 62
     7
370
    25
100
AcDbLine
 10
243.1688054239
 20
214.2500281748
 30
0.0
 11
242.1988265844
 21
214.24645862
 31
0.0
  0
LINE
  5
A16
330
1F
100
AcDbEntity
  8
0
  6
Continuous
 62
     7
370
    25
100
AcDbLine
 10
243.3829215877
 20
214.2926185278
 30
0.0
 11
243.1688054239
 21
214.2500281748
 31
0.0
  0
LINE
  5
A17
330
1F
100
AcDbEntity
  8
0
  6
Continuous
 62
     7
370
    25
100
AcDbLine
 10
243.5896468013
 20
214.362792282
 30
0.0
 11
243.3829215877
 21
214.2926185278
 31
0.0
  0
LINE
  5
A18
330
1F
100
AcDbEntity
  8
0
  6
Continuous
 62
     7
370
    25
100
AcDbLine
 10
243.7854439392
 20
214.459348745
 30
0.0
 11
243.5896468013
 21
214.362792282
 31
0.0
  0
LINE
  5
A19
330
1F
100
AcDbEntity
  8
0
  6
Continuous
 62
     7
370
    25
100
AcDbLine
 10
243.966962858
 20
214.5806358089
 30
0.0
 11
243.7854439392
 21
214.459348745
 31
0.0
  0
LINE
  5
A1A
330
1F
100
AcDbEntity
  8
0
  6
Continuous
 62
     7
370
    25
100
AcDbLine
 10
244.1310977186
 20
214.7245782185
 30
0.0
 11
243.966962858
 21
214.5806358089
 31
0.0
  0
LINE
  5
A1B
330
1F
100
AcDbEntity
  8
0
  6
Continuous
 62
     7
370
    25
100
AcDbLine
 10
244.2750401282
 20
214.8887130791
 30
0.0
 11
244.1310977186
 21
214.7245782185
 31
0.0
  0
LINE
  5
A1C
330
1F
100
AcDbEntity
  8
0
  6
Continuous
 62
     7
370
    25
100
AcDbLine
 10
244.3963271921
 20
215.0702319979
 30
0.0
 11
244.2750401282
 21
214.8887130791
 31
0.0
  0
LINE
  5
A1D
330
1F
100
AcDbEntity
  8
0
  6
Continuous
 62
     7
370
    25
100
AcDbLine
 10
244.492883655
 20
215.2660291357
 30
0.0
 11
244.3963271921
 21
215.0702319979
 31
0.0
  0
LINE
  5
A1E
330
1F
100
AcDbEntity
  8
0
  6
Continuous
 62
     7
370
    25
100
AcDbLine
 10
244.5630574092
 20
215.4727543494
 30
0.0
 11
244.492883655
 21
215.2660291357
 31
0.0
  0
LINE
  5
A1F
330
1F
100
AcDbEntity
  8
0
  6
Continuous
 62
     7
370
    25
100
AcDbLine
 10
244.6056477623
 20
215.6868705131
 30
0.0
 11
244.5630574092
 21
215.4727543494
 31
0.0
  0
LINE
  5
A20
330
1F
100
AcDbEntity
  8
0
  6
Continuous
 62
     7
370
    25
100
AcDbLine
 10
244.6056477623
 20
217.8051602247
 30
0.0
 11
244.6056477623
 21
215.6868705131
 31
0.0
  0
LINE
  5
A21
330
1F
100
AcDbEntity
  8
0
  6
Continuous
 62
     7
370
    25
100
AcDbLine
 10
244.5630574092
 20
218.0192763885
 30
0.0
 11
244.6056477623
 21
217.8051602247
 31
0.0
  0
LINE
  5
A22
330
1F
100
AcDbEntity
  8
0
  6
Continuous
 62
     7
370
    25
100
AcDbLine
 10
244.492883655
 20
218.2260016021
 30
0.0
 11
244.5630574092
 21
218.0192763885
 31
0.0
  0
LINE
  5
A23
330
1F
100
AcDbEntity
  8
0
  6
Continuous
 62
     7
370
    25
100
AcDbLine
 10
244.3963271921
 20
218.42179874
 30
0.0
 11
244.492883655
 21
218.2260016021
 31
0.0
  0
LINE
  5
A24
330
1F
100
AcDbEntity
  8
0
  6
Continuous
 62
     7
370
    25
100
AcDbLine
 10
244.2750401282
 20
218.6033176588
 30
0.0
 11
244.3963271921
 21
218.42179874
 31
0.0
  0
LINE
  5
A25
330
1F
100
AcDbEntity
  8
0
  6
Continuous
 62
     7
370
    25
100
AcDbLine
 10
244.1310977186
 20
218.7674525194
 30
0.0
 11
244.2750401282
 21
218.6033176588
 31
0.0
  0
LINE
  5
A26
330
1F
100
AcDbEntity
  8
0
  6
Continuous
 62
     7
370
    25
100
AcDbLine
 10
243.966962858
 20
218.911394929
 30
0.0
 11
244.1310977186
 21
218.7674525194
 31
0.0
  0
LINE
  5
A27
330
1F
100
AcDbEntity
  8
0
  6
Continuous
 62
     7
370
    25
100
AcDbLine
 10
197.6158006448
 20
206.2947925204
 30
0.0
 11
197.0128482558
 21
206.5445435985
 31
0.0
  0
LINE
  5
A28
330
1F
100
AcDbEntity
  8
0
  6
Continuous
 62
     7
370
    25
100
AcDbLine
 10
198.2628482649
 20
206.2096070656
 30
0.0
 11
197.6158006448
 21
206.2947925204
 31
0.0
  0
LINE
  5
A29
330
1F
100
AcDbEntity
  8
0
  6
Continuous
 62
     7
370
    25
100
AcDbLine
 10
198.9098958901
 20
206.2947924819
 30
0.0
 11
198.2628482649
 21
206.2096070656
 31
0.0
  0
LINE
  5
A2A
330
1F
100
AcDbEntity
  8
0
  6
Continuous
 62
     7
370
    25
100
AcDbLine
 10
199.5128482941
 20
206.544543524
 30
0.0
 11
198.9098958901
 21
206.2947924819
 31
0.0
  0
LINE
  5
A2B
330
1F
100
AcDbEntity
  8
0
  6
Continuous
 62
     7
370
    25
100
AcDbLine
 10
200.0306152668
 20
206.9418400711
 30
0.0
 11
199.5128482941
 21
206.544543524
 31
0.0
  0
LINE
  5
A2C
330
1F
100
AcDbEntity
  8
0
  6
Continuous
 62
     7
370
    25
100
AcDbLine
 10
200.4279118448
 20
207.4596070202
 30
0.0
 11
200.0306152668
 21
206.9418400711
 31
0.0
  0
LINE
  5
A2D
330
1F
100
AcDbEntity
  8
0
  6
Continuous
 62
     7
370
    25
100
AcDbLine
 10
200.6776629228
 20
208.0625594092
 30
0.0
 11
200.4279118448
 21
207.4596070202
 31
0.0
  0
LINE
  5
A2E
330
1F
100
AcDbEntity
  8
0
  6
Continuous
 62
     7
370
    25
100
AcDbLine
 10
200.7628483777
 20
208.7096070293
 30
0.0
 11
200.6776629228
 21
208.0625594092
 31
0.0
  0
LINE
  5
A2F
330
1F
100
AcDbEntity
  8
0
  6
Continuous
 62
     7
370
    25
100
AcDbLine
 10
200.6776629614
 20
209.3566546545
 30
0.0
 11
200.7628483777
 21
208.7096070293
 31
0.0
  0
LINE
  5
A30
330
1F
100
AcDbEntity
  8
0
  6
Continuous
 62
     7
370
    25
100
AcDbLine
 10
200.4279119193
 20
209.9596070584
 30
0.0
 11
200.6776629614
 21
209.3566546545
 31
0.0
  0
LINE
  5
A31
330
1F
100
AcDbEntity
  8
0
  6
Continuous
 62
     7
370
    25
100
AcDbLine
 10
200.0306153722
 20
210.4773740312
 30
0.0
 11
200.4279119193
 21
209.9596070584
 31
0.0
  0
LINE
  5
A32
330
1F
100
AcDbEntity
  8
0
  6
Continuous
 62
     7
370
    25
100
AcDbLine
 10
199.5128484231
 20
210.8746706092
 30
0.0
 11
200.0306153722
 21
210.4773740312
 31
0.0
  0
LINE
  5
A33
330
1F
100
AcDbEntity
  8
0
  6
Continuous
 62
     7
370
    25
100
AcDbLine
 10
198.9098960341
 20
211.1244216872
 30
0.0
 11
199.5128484231
 21
210.8746706092
 31
0.0
  0
LINE
  5
A34
330
1F
100
AcDbEntity
  8
0
  6
Continuous
 62
     7
370
    25
100
AcDbLine
 10
198.262848414
 20
211.2096071421
 30
0.0
 11
198.9098960341
 21
211.1244216872
 31
0.0
  0
LINE
  5
A35
330
1F
100
AcDbEntity
  8
0
  6
Continuous
 62
     7
370
    25
100
AcDbLine
 10
197.6158007888
 20
211.1244217258
 30
0.0
 11
198.262848414
 21
211.2096071421
 31
0.0
  0
LINE
  5
A36
330
1F
100
AcDbEntity
  8
0
  6
Continuous
 62
     7
370
    25
100
AcDbLine
 10
197.0128483848
 20
210.8746706837
 30
0.0
 11
197.6158007888
 21
211.1244217258
 31
0.0
  0
LINE
  5
A37
330
1F
100
AcDbEntity
  8
0
  6
Continuous
 62
     7
370
    25
100
AcDbLine
 10
196.4950814121
 20
210.4773741365
 30
0.0
 11
197.0128483848
 21
210.8746706837
 31
0.0
  0
LINE
  5
A38
330
1F
100
AcDbEntity
  8
0
  6
Continuous
 62
     7
370
    25
100
AcDbLine
 10
196.0977848341
 20
209.9596071875
 30
0.0
 11
196.4950814121
 21
210.4773741365
 31
0.0
  0
LINE
  5
A39
330
1F
100
AcDbEntity
  8
0
  6
Continuous
 62
     7
370
    25
100
AcDbLine
 10
195.848033756
 20
209.3566547985
 30
0.0
 11
196.0977848341
 21
209.9596071875
 31
0.0
  0
LINE
  5
A3A
330
1F
100
AcDbEntity
  8
0
  6
Continuous
 62
     7
370
    25
100
AcDbLine
 10
195.7628483012
 20
208.7096071783
 30
0.0
 11
195.848033756
 21
209.3566547985
 31
0.0
  0
LINE
  5
A3B
330
1F
100
AcDbEntity
  8
0
  6
Continuous
 62
     7
370
    25
100
AcDbLine
 10
195.8480337175
 20
208.0625595532
 30
0.0
 11
195.7628483012
 21
208.7096071783
 31
0.0
  0
LINE
  5
A3C
330
1F
100
AcDbEntity
  8
0
  6
Continuous
 62
     7
370
    25
100
AcDbLine
 10
196.0977847596
 20
207.4596071492
 30
0.0
 11
195.8480337175
 21
208.0625595532
 31
0.0
  0
LINE
  5
A3D
330
1F
100
AcDbEntity
  8
0
  6
Continuous
 62
     7
370
    25
100
AcDbLine
 10
196.4950813067
 20
206.9418401765
 30
0.0
 11
196.0977847596
 21
207.4596071492
 31
0.0
  0
LINE
  5
A3E
330
1F
100
AcDbEntity
  8
0
  6
Continuous
 62
     7
370
    25
100
AcDbLine
 10
197.0128482558
 20
206.5445435985
 30
0.0
 11
196.4950813067
 21
206.9418401765
 31
0.0
  0
LINE
  5
A3F
330
1F
100
AcDbEntity
  8
0
  6
Continuous
 62
     7
370
    25
100
AcDbLine
 10
217.6199142663
 20
171.2388550301
 30
0.0
 11
238.6200479009
 21
171.2388550301
 31
0.0
  0
LINE
  5
A40
330
1F
100
AcDbEntity
  8
0
  6
Continuous
 62
     7
370
    25
100
AcDbLine
 10
216.9728764495
 20
171.1536636648
 30
0.0
 11
217.6199142663
 21
171.2388550301
 31
0.0
  0
LINE
  5
A41
330
1F
100
AcDbEntity
  8
0
  6
Continuous
 62
     7
370
    25
100
AcDbLine
 10
216.3699329111
 20
170.9039315531
 30
0.0
 11
216.9728764495
 21
171.1536636648
 31
0.0
  0
LINE
  5
A42
330
1F
100
AcDbEntity
  8
0
  6
Continuous
 62
     7
370
    25
100
AcDbLine
 10
215.8521553381
 20
170.506625848
 30
0.0
 11
216.3699329111
 21
170.9039315531
 31
0.0
  0
LINE
  5
A43
330
1F
100
AcDbEntity
  8
0
  6
Continuous
 62
     7
370
    25
100
AcDbLine
 10
215.4548750329
 20
169.9888736749
 30
0.0
 11
215.8521553381
 21
170.506625848
 31
0.0
  0
LINE
  5
A44
330
1F
100
AcDbEntity
  8
0
  6
Continuous
 62
     7
370
    25
100
AcDbLine
 10
215.2051175212
 20
169.3859047366
 30
0.0
 11
215.4548750329
 21
169.9888736749
 31
0.0
  0
LINE
  5
A45
330
1F
100
AcDbEntity
  8
0
  6
Continuous
 62
     7
370
    25
100
AcDbLine
 10
215.119926156
 20
168.7388669197
 30
0.0
 11
215.2051175212
 21
169.3859047366
 31
0.0
  0
LINE
  5
A46
330
1F
100
AcDbEntity
  8
0
  6
Continuous
 62
     7
370
    25
100
AcDbLine
 10
215.2051175212
 20
168.0918291029
 30
0.0
 11
215.119926156
 21
168.7388669197
 31
0.0
  0
LINE
  5
A47
330
1F
100
AcDbEntity
  8
0
  6
Continuous
 62
     7
370
    25
100
AcDbLine
 10
215.4548750329
 20
167.4888601646
 30
0.0
 11
215.2051175212
 21
168.0918291029
 31
0.0
  0
LINE
  5
A48
330
1F
100
AcDbEntity
  8
0
  6
Continuous
 62
     7
370
    25
100
AcDbLine
 10
215.8521553381
 20
166.9711079915
 30
0.0
 11
215.4548750329
 21
167.4888601646
 31
0.0
  0
LINE
  5
A49
330
1F
100
AcDbEntity
  8
0
  6
Continuous
 62
     7
370
    25
100
AcDbLine
 10
216.3699329111
 20
166.5738022864
 30
0.0
 11
215.8521553381
 21
166.9711079915
 31
0.0
  0
LINE
  5
A4A
330
1F
100
AcDbEntity
  8
0
  6
Continuous
 62
     7
370
    25
100
AcDbLine
 10
216.9728764495
 20
166.3240447747
 30
0.0
 11
216.3699329111
 21
166.5738022864
 31
0.0
  0
LINE
  5
A4B
330
1F
100
AcDbEntity
  8
0
  6
Continuous
 62
     7
370
    25
100
AcDbLine
 10
217.6199142663
 20
166.2388788094
 30
0.0
 11
216.9728764495
 21
166.3240447747
 31
0.0
  0
LINE
  5
A4C
330
1F
100
AcDbEntity
  8
0
  6
Continuous
 62
     7
370
    25
100
AcDbLine
 10
238.6200479009
 20
166.2388788094
 30
0.0
 11
217.6199142663
 21
166.2388788094
 31
0.0
  0
LINE
  5
A4D
330
1F
100
AcDbEntity
  8
0
  6
Continuous
 62
     7
370
    25
100
AcDbLine
 10
239.2670857177
 20
166.3240447747
 30
0.0
 11
238.6200479009
 21
166.2388788094
 31
0.0
  0
LINE
  5
A4E
330
1F
100
AcDbEntity
  8
0
  6
Continuous
 62
     7
370
    25
100
AcDbLine
 10
239.8700292561
 20
166.5738022864
 30
0.0
 11
239.2670857177
 21
166.3240447747
 31
0.0
  0
LINE
  5
A4F
330
1F
100
AcDbEntity
  8
0
  6
Continuous
 62
     7
370
    25
100
AcDbLine
 10
240.3878068292
 20
166.9711079915
 30
0.0
 11
239.8700292561
 21
166.5738022864
 31
0.0
  0
LINE
  5
A50
330
1F
100
AcDbEntity
  8
0
  6
Continuous
 62
     7
370
    25
100
AcDbLine
 10
240.7850871343
 20
167.4888601646
 30
0.0
 11
240.3878068292
 21
166.9711079915
 31
0.0
  0
LINE
  5
A51
330
1F
100
AcDbEntity
  8
0
  6
Continuous
 62
     7
370
    25
100
AcDbLine
 10
241.034844646
 20
168.0918291029
 30
0.0
 11
240.7850871343
 21
167.4888601646
 31
0.0
  0
LINE
  5
A52
330
1F
100
AcDbEntity
  8
0
  6
Continuous
 62
     7
370
    25
100
AcDbLine
 10
241.1200360112
 20
168.7388669197
 30
0.0
 11
241.034844646
 21
168.0918291029
 31
0.0
  0
LINE
  5
A53
330
1F
100
AcDbEntity
  8
0
  6
Continuous
 62
     7
370
    25
100
AcDbLine
 10
241.034844646
 20
169.3859047366
 30
0.0
 11
241.1200360112
 21
168.7388669197
 31
0.0
  0
LINE
  5
A54
330
1F
100
AcDbEntity
  8
0
  6
Continuous
 62
     7
370
    25
100
AcDbLine
 10
240.7850871343
 20
169.9888736749
 30
0.0
 11
241.034844646
 21
169.3859047366
 31
0.0
  0
LINE
  5
A55
330
1F
100
AcDbEntity
  8
0
  6
Continuous
 62
     7
370
    25
100
AcDbLine
 10
240.3878068292
 20
170.506625848
 30
0.0
 11
240.7850871343
 21
169.9888736749
 31
0.0
  0
LINE
  5
A56
330
1F
100
AcDbEntity
  8
0
  6
Continuous
 62
     7
370
    25
100
AcDbLine
 10
239.8700292561
 20
170.9039315531
 30
0.0
 11
240.3878068292
 21
170.506625848
 31
0.0
  0
LINE
  5
A57
330
1F
100
AcDbEntity
  8
0
  6
Continuous
 62
     7
370
    25
100
AcDbLine
 10
239.2670857177
 20
171.1536636648
 30
0.0
 11
239.8700292561
 21
170.9039315531
 31
0.0
  0
LINE
  5
A58
330
1F
100
AcDbEntity
  8
0
  6
Continuous
 62
     7
370
    25
100
AcDbLine
 10
238.6200479009
 20
171.2388550301
 30
0.0
 11
239.2670857177
 21
171.1536636648
 31
0.0
  0
LINE
  5
A59
330
1F
100
AcDbEntity
  8
0
  6
Continuous
 62
     7
370
    25
100
AcDbLine
 10
217.6199142663
 20
191.2388107127
 30
0.0
 11
238.6200479009
 21
191.2388107127
 31
0.0
  0
LINE
  5
A5A
330
1F
100
AcDbEntity
  8
0
  6
Continuous
 62
     7
370
    25
100
AcDbLine
 10
216.9728764495
 20
191.1536193475
 30
0.0
 11
217.6199142663
 21
191.2388107127
 31
0.0
  0
LINE
  5
A5B
330
1F
100
AcDbEntity
  8
0
  6
Continuous
 62
     7
370
    25
100
AcDbLine
 10
216.3699329111
 20
190.9038618358
 30
0.0
 11
216.9728764495
 21
191.1536193475
 31
0.0
  0
LINE
  5
A5C
330
1F
100
AcDbEntity
  8
0
  6
Continuous
 62
     7
370
    25
100
AcDbLine
 10
215.8521553381
 20
190.5065815306
 30
0.0
 11
216.3699329111
 21
190.9038618358
 31
0.0
  0
LINE
  5
A5D
330
1F
100
AcDbEntity
  8
0
  6
Continuous
 62
     7
370
    25
100
AcDbLine
 10
215.4548750329
 20
189.9888039576
 30
0.0
 11
215.8521553381
 21
190.5065815306
 31
0.0
  0
LINE
  5
A5E
330
1F
100
AcDbEntity
  8
0
  6
Continuous
 62
     7
370
    25
100
AcDbLine
 10
215.2051175212
 20
189.3858604192
 30
0.0
 11
215.4548750329
 21
189.9888039576
 31
0.0
  0
LINE
  5
A5F
330
1F
100
AcDbEntity
  8
0
  6
Continuous
 62
     7
370
    25
100
AcDbLine
 10
215.119926156
 20
188.7388226023
 30
0.0
 11
215.2051175212
 21
189.3858604192
 31
0.0
  0
LINE
  5
A60
330
1F
100
AcDbEntity
  8
0
  6
Continuous
 62
     7
370
    25
100
AcDbLine
 10
215.2051175212
 20
188.0917593856
 30
0.0
 11
215.119926156
 21
188.7388226023
 31
0.0
  0
LINE
  5
A61
330
1F
100
AcDbEntity
  8
0
  6
Continuous
 62
     7
370
    25
100
AcDbLine
 10
215.4548750329
 20
187.4888158472
 30
0.0
 11
215.2051175212
 21
188.0917593856
 31
0.0
  0
LINE
  5
A62
330
1F
100
AcDbEntity
  8
0
  6
Continuous
 62
     7
370
    25
100
AcDbLine
 10
215.8521553381
 20
186.9710382742
 30
0.0
 11
215.4548750329
 21
187.4888158472
 31
0.0
  0
LINE
  5
A63
330
1F
100
AcDbEntity
  8
0
  6
Continuous
 62
     7
370
    25
100
AcDbLine
 10
216.3699329111
 20
186.573757969
 30
0.0
 11
215.8521553381
 21
186.9710382742
 31
0.0
  0
LINE
  5
A64
330
1F
100
AcDbEntity
  8
0
  6
Continuous
 62
     7
370
    25
100
AcDbLine
 10
216.9728764495
 20
186.3240004573
 30
0.0
 11
216.3699329111
 21
186.573757969
 31
0.0
  0
LINE
  5
A65
330
1F
100
AcDbEntity
  8
0
  6
Continuous
 62
     7
370
    25
100
AcDbLine
 10
217.6199142663
 20
186.2388090921
 30
0.0
 11
216.9728764495
 21
186.3240004573
 31
0.0
  0
LINE
  5
A66
330
1F
100
AcDbEntity
  8
0
  6
Continuous
 62
     7
370
    25
100
AcDbLine
 10
238.6200479009
 20
186.2388090921
 30
0.0
 11
217.6199142663
 21
186.2388090921
 31
0.0
  0
LINE
  5
A67
330
1F
100
AcDbEntity
  8
0
  6
Continuous
 62
     7
370
    25
100
AcDbLine
 10
239.2670857177
 20
186.3240004573
 30
0.0
 11
238.6200479009
 21
186.2388090921
 31
0.0
  0
LINE
  5
A68
330
1F
100
AcDbEntity
  8
0
  6
Continuous
 62
     7
370
    25
100
AcDbLine
 10
239.8700292561
 20
186.573757969
 30
0.0
 11
239.2670857177
 21
186.3240004573
 31
0.0
  0
LINE
  5
A69
330
1F
100
AcDbEntity
  8
0
  6
Continuous
 62
     7
370
    25
100
AcDbLine
 10
240.3878068292
 20
186.9710382742
 30
0.0
 11
239.8700292561
 21
186.573757969
 31
0.0
  0
LINE
  5
A6A
330
1F
100
AcDbEntity
  8
0
  6
Continuous
 62
     7
370
    25
100
AcDbLine
 10
240.7850871343
 20
187.4888158472
 30
0.0
 11
240.3878068292
 21
186.9710382742
 31
0.0
  0
LINE
  5
A6B
330
1F
100
AcDbEntity
  8
0
  6
Continuous
 62
     7
370
    25
100
AcDbLine
 10
241.034844646
 20
188.0917593856
 30
0.0
 11
240.7850871343
 21
187.4888158472
 31
0.0
  0
LINE
  5
A6C
330
1F
100
AcDbEntity
  8
0
  6
Continuous
 62
     7
370
    25
100
AcDbLine
 10
241.1200360112
 20
188.7388226023
 30
0.0
 11
241.034844646
 21
188.0917593856
 31
0.0
  0
LINE
  5
A6D
330
1F
100
AcDbEntity
  8
0
  6
Continuous
 62
     7
370
    25
100
AcDbLine
 10
241.034844646
 20
189.3858604192
 30
0.0
 11
241.1200360112
 21
188.7388226023
 31
0.0
  0
LINE
  5
A6E
330
1F
100
AcDbEntity
  8
0
  6
Continuous
 62
     7
370
    25
100
AcDbLine
 10
240.7850871343
 20
189.9888039576
 30
0.0
 11
241.034844646
 21
189.3858604192
 31
0.0
  0
LINE
  5
A6F
330
1F
100
AcDbEntity
  8
0
  6
Continuous
 62
     7
370
    25
100
AcDbLine
 10
240.3878068292
 20
190.5065815306
 30
0.0
 11
240.7850871343
 21
189.9888039576
 31
0.0
  0
LINE
  5
A70
330
1F
100
AcDbEntity
  8
0
  6
Continuous
 62
     7
370
    25
100
AcDbLine
 10
239.8700292561
 20
190.9038618358
 30
0.0
 11
240.3878068292
 21
190.5065815306
 31
0.0
  0
LINE
  5
A71
330
1F
100
AcDbEntity
  8
0
  6
Continuous
 62
     7
370
    25
100
AcDbLine
 10
239.2670857177
 20
191.1536193475
 30
0.0
 11
239.8700292561
 21
190.9038618358
 31
0.0
  0
LINE
  5
A72
330
1F
100
AcDbEntity
  8
0
  6
Continuous
 62
     7
370
    25
100
AcDbLine
 10
238.6200479009
 20
191.2388107127
 30
0.0
 11
239.2670857177
 21
191.1536193475
 31
0.0
  0
LINE
  5
A73
330
1F
100
AcDbEntity
  8
0
  6
Continuous
 62
     7
370
    25
100
AcDbLine
 10
238.6200479009
 20
206.2388279992
 30
0.0
 11
217.6199142663
 21
206.2388279992
 31
0.0
  0
LINE
  5
A74
330
1F
100
AcDbEntity
  8
0
  6
Continuous
 62
     7
370
    25
100
AcDbLine
 10
239.2670857177
 20
206.3240193644
 30
0.0
 11
238.6200479009
 21
206.2388279992
 31
0.0
  0
LINE
  5
A75
330
1F
100
AcDbEntity
  8
0
  6
Continuous
 62
     7
370
    25
100
AcDbLine
 10
239.8700292561
 20
206.5737768761
 30
0.0
 11
239.2670857177
 21
206.3240193644
 31
0.0
  0
LINE
  5
A76
330
1F
100
AcDbEntity
  8
0
  6
Continuous
 62
     7
370
    25
100
AcDbLine
 10
240.3878068292
 20
206.9710571812
 30
0.0
 11
239.8700292561
 21
206.5737768761
 31
0.0
  0
LINE
  5
A77
330
1F
100
AcDbEntity
  8
0
  6
Continuous
 62
     7
370
    25
100
AcDbLine
 10
240.7850871343
 20
207.4888347543
 30
0.0
 11
240.3878068292
 21
206.9710571812
 31
0.0
  0
LINE
  5
A78
330
1F
100
AcDbEntity
  8
0
  6
Continuous
 62
     7
370
    25
100
AcDbLine
 10
241.034844646
 20
208.0917782927
 30
0.0
 11
240.7850871343
 21
207.4888347543
 31
0.0
  0
LINE
  5
A79
330
1F
100
AcDbEntity
  8
0
  6
Continuous
 62
     7
370
    25
100
AcDbLine
 10
241.1200360112
 20
208.7388415094
 30
0.0
 11
241.034844646
 21
208.0917782927
 31
0.0
  0
LINE
  5
A7A
330
1F
100
AcDbEntity
  8
0
  6
Continuous
 62
     7
370
    25
100
AcDbLine
 10
241.034844646
 20
209.3858793263
 30
0.0
 11
241.1200360112
 21
208.7388415094
 31
0.0
  0
LINE
  5
A7B
330
1F
100
AcDbEntity
  8
0
  6
Continuous
 62
     7
370
    25
100
AcDbLine
 10
240.7850871343
 20
209.9888228646
 30
0.0
 11
241.034844646
 21
209.3858793263
 31
0.0
  0
LINE
  5
A7C
330
1F
100
AcDbEntity
  8
0
  6
Continuous
 62
     7
370
    25
100
AcDbLine
 10
240.3878068292
 20
210.5066004377
 30
0.0
 11
240.7850871343
 21
209.9888228646
 31
0.0
  0
LINE
  5
A7D
330
1F
100
AcDbEntity
  8
0
  6
Continuous
 62
     7
370
    25
100
AcDbLine
 10
239.8700292561
 20
210.9038807428
 30
0.0
 11
240.3878068292
 21
210.5066004377
 31
0.0
  0
LINE
  5
A7E
330
1F
100
AcDbEntity
  8
0
  6
Continuous
 62
     7
370
    25
100
AcDbLine
 10
239.2670857177
 20
211.1536382545
 30
0.0
 11
239.8700292561
 21
210.9038807428
 31
0.0
  0
LINE
  5
A7F
330
1F
100
AcDbEntity
  8
0
  6
Continuous
 62
     7
370
    25
100
AcDbLine
 10
238.6200479009
 20
211.2388296198
 30
0.0
 11
239.2670857177
 21
211.1536382545
 31
0.0
  0
LINE
  5
A80
330
1F
100
AcDbEntity
  8
0
  6
Continuous
 62
     7
370
    25
100
AcDbLine
 10
217.6199142663
 20
211.2388296198
 30
0.0
 11
238.6200479009
 21
211.2388296198
 31
0.0
  0
LINE
  5
A81
330
1F
100
AcDbEntity
  8
0
  6
Continuous
 62
     7
370
    25
100
AcDbLine
 10
216.9728764495
 20
211.1536382545
 30
0.0
 11
217.6199142663
 21
211.2388296198
 31
0.0
  0
LINE
  5
A82
330
1F
100
AcDbEntity
  8
0
  6
Continuous
 62
     7
370
    25
100
AcDbLine
 10
216.3699329111
 20
210.9038807428
 30
0.0
 11
216.9728764495
 21
211.1536382545
 31
0.0
  0
LINE
  5
A83
330
1F
100
AcDbEntity
  8
0
  6
Continuous
 62
     7
370
    25
100
AcDbLine
 10
215.8521553381
 20
210.5066004377
 30
0.0
 11
216.3699329111
 21
210.9038807428
 31
0.0
  0
LINE
  5
A84
330
1F
100
AcDbEntity
  8
0
  6
Continuous
 62
     7
370
    25
100
AcDbLine
 10
215.4548750329
 20
209.9888228646
 30
0.0
 11
215.8521553381
 21
210.5066004377
 31
0.0
  0
LINE
  5
A85
330
1F
100
AcDbEntity
  8
0
  6
Continuous
 62
     7
370
    25
100
AcDbLine
 10
215.2051175212
 20
209.3858793263
 30
0.0
 11
215.4548750329
 21
209.9888228646
 31
0.0
  0
LINE
  5
A86
330
1F
100
AcDbEntity
  8
0
  6
Continuous
 62
     7
370
    25
100
AcDbLine
 10
215.119926156
 20
208.7388415094
 30
0.0
 11
215.2051175212
 21
209.3858793263
 31
0.0
  0
LINE
  5
A87
330
1F
100
AcDbEntity
  8
0
  6
Continuous
 62
     7
370
    25
100
AcDbLine
 10
215.2051175212
 20
208.0917782927
 30
0.0
 11
215.119926156
 21
208.7388415094
 31
0.0
  0
LINE
  5
A88
330
1F
100
AcDbEntity
  8
0
  6
Continuous
 62
     7
370
    25
100
AcDbLine
 10
215.4548750329
 20
207.4888347543
 30
0.0
 11
215.2051175212
 21
208.0917782927
 31
0.0
  0
LINE
  5
A89
330
1F
100
AcDbEntity
  8
0
  6
Continuous
 62
     7
370
    25
100
AcDbLine
 10
215.8521553381
 20
206.9710571812
 30
0.0
 11
215.4548750329
 21
207.4888347543
 31
0.0
  0
LINE
  5
A8A
330
1F
100
AcDbEntity
  8
0
  6
Continuous
 62
     7
370
    25
100
AcDbLine
 10
216.3699329111
 20
206.5737768761
 30
0.0
 11
215.8521553381
 21
206.9710571812
 31
0.0
  0
LINE
  5
A8B
330
1F
100
AcDbEntity
  8
0
  6
Continuous
 62
     7
370
    25
100
AcDbLine
 10
216.9728764495
 20
206.3240193644
 30
0.0
 11
216.3699329111
 21
206.5737768761
 31
0.0
  0
LINE
  5
A8C
330
1F
100
AcDbEntity
  8
0
  6
Continuous
 62
     7
370
    25
100
AcDbLine
 10
217.6199142663
 20
206.2388279992
 30
0.0
 11
216.9728764495
 21
206.3240193644
 31
0.0
  0
LINE
  5
A8D
330
1F
100
AcDbEntity
  8
0
  6
Continuous
 62
     7
370
    25
100
AcDbLine
 10
285.5989950057
 20
190.3546329568
 30
0.0
 11
285.7429374153
 21
190.1904980961
 31
0.0
  0
LINE
  5
A8E
330
1F
100
AcDbEntity
  8
0
  6
Continuous
 62
     7
370
    25
100
AcDbLine
 10
285.4348601451
 20
190.4985753663
 30
0.0
 11
285.5989950057
 21
190.3546329568
 31
0.0
  0
LINE
  5
A8F
330
1F
100
AcDbEntity
  8
0
  6
Continuous
 62
     7
370
    25
100
AcDbLine
 10
285.2533412263
 20
190.6198624302
 30
0.0
 11
285.4348601451
 21
190.4985753663
 31
0.0
  0
LINE
  5
A90
330
1F
100
AcDbEntity
  8
0
  6
Continuous
 62
     7
370
    25
100
AcDbLine
 10
285.0575440884
 20
190.7164188932
 30
0.0
 11
285.2533412263
 21
190.6198624302
 31
0.0
  0
LINE
  5
A91
330
1F
100
AcDbEntity
  8
0
  6
Continuous
 62
     7
370
    25
100
AcDbLine
 10
284.8508188748
 20
190.7865926474
 30
0.0
 11
285.0575440884
 21
190.7164188932
 31
0.0
  0
LINE
  5
A92
330
1F
100
AcDbEntity
  8
0
  6
Continuous
 62
     7
370
    25
100
AcDbLine
 10
284.636702711
 20
190.8291830004
 30
0.0
 11
284.8508188748
 21
190.7865926474
 31
0.0
  0
LINE
  5
A93
330
1F
100
AcDbEntity
  8
0
  6
Continuous
 62
     7
370
    25
100
AcDbLine
 10
273.0410562408
 20
190.8434612195
 30
0.0
 11
284.636702711
 21
190.8291830004
 31
0.0
  0
LINE
  5
A94
330
1F
100
AcDbEntity
  8
0
  6
Continuous
 62
     7
370
    25
100
AcDbLine
 10
272.6090965502
 20
190.7865926474
 30
0.0
 11
273.0410562408
 21
190.8434612195
 31
0.0
  0
LINE
  5
A95
330
1F
100
AcDbEntity
  8
0
  6
Continuous
 62
     7
370
    25
100
AcDbLine
 10
272.4023713365
 20
190.7164188932
 30
0.0
 11
272.6090965502
 21
190.7865926474
 31
0.0
  0
LINE
  5
A96
330
1F
100
AcDbEntity
  8
0
  6
Continuous
 62
     7
370
    25
100
AcDbLine
 10
272.2065741986
 20
190.6198624302
 30
0.0
 11
272.4023713365
 21
190.7164188932
 31
0.0
  0
LINE
  5
A97
330
1F
100
AcDbEntity
  8
0
  6
Continuous
 62
     7
370
    25
100
AcDbLine
 10
272.0250552798
 20
190.4985753663
 30
0.0
 11
272.2065741986
 21
190.6198624302
 31
0.0
  0
LINE
  5
A98
330
1F
100
AcDbEntity
  8
0
  6
Continuous
 62
     7
370
    25
100
AcDbLine
 10
271.8609204192
 20
190.3546329568
 30
0.0
 11
272.0250552798
 21
190.4985753663
 31
0.0
  0
LINE
  5
A99
330
1F
100
AcDbEntity
  8
0
  6
Continuous
 62
     7
370
    25
100
AcDbLine
 10
271.7169780097
 20
190.1904980962
 30
0.0
 11
271.8609204192
 21
190.3546329568
 31
0.0
  0
LINE
  5
A9A
330
1F
100
AcDbEntity
  8
0
  6
Continuous
 62
     7
370
    25
100
AcDbLine
 10
271.5956909458
 20
190.0089791774
 30
0.0
 11
271.7169780097
 21
190.1904980962
 31
0.0
  0
LINE
  5
A9B
330
1F
100
AcDbEntity
  8
0
  6
Continuous
 62
     7
370
    25
100
AcDbLine
 10
271.4991344828
 20
189.8131820395
 30
0.0
 11
271.5956909458
 21
190.0089791774
 31
0.0
  0
LINE
  5
A9C
330
1F
100
AcDbEntity
  8
0
  6
Continuous
 62
     7
370
    25
100
AcDbLine
 10
271.4289607286
 20
189.6064568258
 30
0.0
 11
271.4991344828
 21
189.8131820395
 31
0.0
  0
LINE
  5
A9D
330
1F
100
AcDbEntity
  8
0
  6
Continuous
 62
     7
370
    25
100
AcDbLine
 10
271.3779482303
 20
189.2189784322
 30
0.0
 11
271.4289607286
 21
189.6064568258
 31
0.0
  0
LINE
  5
A9E
330
1F
100
AcDbEntity
  8
0
  6
Continuous
 62
     7
370
    25
100
AcDbLine
 10
271.3720921565
 20
176.360829547
 30
0.0
 11
271.3779482303
 21
189.2189784322
 31
0.0
  0
LINE
  5
A9F
330
1F
100
AcDbEntity
  8
0
  6
Continuous
 62
     7
370
    25
100
AcDbLine
 10
271.4289607286
 20
175.9288698564
 30
0.0
 11
271.3720921565
 21
176.360829547
 31
0.0
  0
LINE
  5
AA0
330
1F
100
AcDbEntity
  8
0
  6
Continuous
 62
     7
370
    25
100
AcDbLine
 10
271.4991344828
 20
175.7221446427
 30
0.0
 11
271.4289607286
 21
175.9288698564
 31
0.0
  0
LINE
  5
AA1
330
1F
100
AcDbEntity
  8
0
  6
Continuous
 62
     7
370
    25
100
AcDbLine
 10
271.5956909458
 20
175.5263475049
 30
0.0
 11
271.4991344828
 21
175.7221446427
 31
0.0
  0
LINE
  5
AA2
330
1F
100
AcDbEntity
  8
0
  6
Continuous
 62
     7
370
    25
100
AcDbLine
 10
271.7169780097
 20
175.3448285861
 30
0.0
 11
271.5956909458
 21
175.5263475049
 31
0.0
  0
LINE
  5
AA3
330
1F
100
AcDbEntity
  8
0
  6
Continuous
 62
     7
370
    25
100
AcDbLine
 10
271.8609204192
 20
175.1806937255
 30
0.0
 11
271.7169780097
 21
175.3448285861
 31
0.0
  0
LINE
  5
AA4
330
1F
100
AcDbEntity
  8
0
  6
Continuous
 62
     7
370
    25
100
AcDbLine
 10
272.0250552799
 20
175.0367513159
 30
0.0
 11
271.8609204192
 21
175.1806937255
 31
0.0
  0
LINE
  5
AA5
330
1F
100
AcDbEntity
  8
0
  6
Continuous
 62
     7
370
    25
100
AcDbLine
 10
272.2065741986
 20
174.915464252
 30
0.0
 11
272.0250552799
 21
175.0367513159
 31
0.0
  0
LINE
  5
AA6
330
1F
100
AcDbEntity
  8
0
  6
Continuous
 62
     7
370
    25
100
AcDbLine
 10
272.4023713365
 20
174.818907789
 30
0.0
 11
272.2065741986
 21
174.915464252
 31
0.0
  0
LINE
  5
AA7
330
1F
100
AcDbEntity
  8
0
  6
Continuous
 62
     7
370
    25
100
AcDbLine
 10
272.6090965502
 20
174.7487340348
 30
0.0
 11
272.4023713365
 21
174.818907789
 31
0.0
  0
LINE
  5
AA8
330
1F
100
AcDbEntity
  8
0
  6
Continuous
 62
     7
370
    25
100
AcDbLine
 10
273.0410562408
 20
174.6918654627
 30
0.0
 11
272.6090965502
 21
174.7487340348
 31
0.0
  0
LINE
  5
AA9
330
1F
100
AcDbEntity
  8
0
  6
Continuous
 62
     7
370
    25
100
AcDbLine
 10
275.5110350804
 20
174.6934251139
 30
0.0
 11
273.0410562408
 21
174.6918654627
 31
0.0
  0
LINE
  5
AAA
330
1F
100
AcDbEntity
  8
0
  6
Continuous
 62
     7
370
    25
100
AcDbLine
 10
276.4810139199
 20
173.4801715306
 30
0.0
 11
275.5110350804
 21
174.6934251139
 31
0.0
  0
LINE
  5
AAB
330
1F
100
AcDbEntity
  8
0
  6
Continuous
 62
     7
370
    25
100
AcDbLine
 10
276.5664594549
 20
172.8331581608
 30
0.0
 11
276.4810139199
 21
173.4801715306
 31
0.0
  0
LINE
  5
AAC
330
1F
100
AcDbEntity
  8
0
  6
Continuous
 62
     7
370
    25
100
AcDbLine
 10
276.8164528864
 20
172.2303061687
 30
0.0
 11
276.5664594549
 21
172.8331581608
 31
0.0
  0
LINE
  5
AAD
330
1F
100
AcDbEntity
  8
0
  6
Continuous
 62
     7
370
    25
100
AcDbLine
 10
277.2139575752
 20
171.7126989212
 30
0.0
 11
276.8164528864
 21
172.2303061687
 31
0.0
  0
LINE
  5
AAE
330
1F
100
AcDbEntity
  8
0
  6
Continuous
 62
     7
370
    25
100
AcDbLine
 10
277.7318842337
 20
171.3156104971
 30
0.0
 11
277.2139575752
 21
171.7126989212
 31
0.0
  0
LINE
  5
AAF
330
1F
100
AcDbEntity
  8
0
  6
Continuous
 62
     7
370
    25
100
AcDbLine
 10
278.3349370161
 20
171.0661018161
 30
0.0
 11
277.7318842337
 21
171.3156104971
 31
0.0
  0
LINE
  5
AB0
330
1F
100
AcDbEntity
  8
0
  6
Continuous
 62
     7
370
    25
100
AcDbLine
 10
278.9820188717
 20
170.9811764824
 30
0.0
 11
278.3349370161
 21
171.0661018161
 31
0.0
  0
LINE
  5
AB1
330
1F
100
AcDbEntity
  8
0
  6
Continuous
 62
     7
370
    25
100
AcDbLine
 10
279.6290322416
 20
171.0666220174
 30
0.0
 11
278.9820188717
 21
170.9811764824
 31
0.0
  0
LINE
  5
AB2
330
1F
100
AcDbEntity
  8
0
  6
Continuous
 62
     7
370
    25
100
AcDbLine
 10
280.2318842337
 20
171.3166154489
 30
0.0
 11
279.6290322416
 21
171.0666220174
 31
0.0
  0
LINE
  5
AB3
330
1F
100
AcDbEntity
  8
0
  6
Continuous
 62
     7
370
    25
100
AcDbLine
 10
280.7494914811
 20
171.7141201377
 30
0.0
 11
280.2318842337
 21
171.3166154489
 31
0.0
  0
LINE
  5
AB4
330
1F
100
AcDbEntity
  8
0
  6
Continuous
 62
     7
370
    25
100
AcDbLine
 10
281.1465799053
 20
172.2320467962
 30
0.0
 11
280.7494914811
 21
171.7141201377
 31
0.0
  0
LINE
  5
AB5
330
1F
100
AcDbEntity
  8
0
  6
Continuous
 62
     7
370
    25
100
AcDbLine
 10
281.3960885863
 20
172.8350995786
 30
0.0
 11
281.1465799053
 21
172.2320467962
 31
0.0
  0
LINE
  5
AB6
330
1F
100
AcDbEntity
  8
0
  6
Continuous
 62
     7
370
    25
100
AcDbLine
 10
281.4810139199
 20
173.4821814342
 30
0.0
 11
281.3960885863
 21
172.8350995786
 31
0.0
  0
LINE
  5
AB7
330
1F
100
AcDbEntity
  8
0
  6
Continuous
 62
     7
370
    25
100
AcDbLine
 10
282.4509927595
 20
174.702574127
 30
0.0
 11
281.4810139199
 21
173.4821814342
 31
0.0
  0
LINE
  5
AB8
330
1F
100
AcDbEntity
  8
0
  6
Continuous
 62
     7
370
    25
100
AcDbLine
 10
284.6367027111
 20
174.7061436818
 30
0.0
 11
282.4509927595
 21
174.702574127
 31
0.0
  0
LINE
  5
AB9
330
1F
100
AcDbEntity
  8
0
  6
Continuous
 62
     7
370
    25
100
AcDbLine
 10
284.8508188748
 20
174.7487340348
 30
0.0
 11
284.6367027111
 21
174.7061436818
 31
0.0
  0
LINE
  5
ABA
330
1F
100
AcDbEntity
  8
0
  6
Continuous
 62
     7
370
    25
100
AcDbLine
 10
285.0575440885
 20
174.818907789
 30
0.0
 11
284.8508188748
 21
174.7487340348
 31
0.0
  0
LINE
  5
ABB
330
1F
100
AcDbEntity
  8
0
  6
Continuous
 62
     7
370
    25
100
AcDbLine
 10
285.2533412263
 20
174.915464252
 30
0.0
 11
285.0575440885
 21
174.818907789
 31
0.0
  0
LINE
  5
ABC
330
1F
100
AcDbEntity
  8
0
  6
Continuous
 62
     7
370
    25
100
AcDbLine
 10
285.4348601451
 20
175.0367513159
 30
0.0
 11
285.2533412263
 21
174.915464252
 31
0.0
  0
LINE
  5
ABD
330
1F
100
AcDbEntity
  8
0
  6
Continuous
 62
     7
370
    25
100
AcDbLine
 10
285.5989950057
 20
175.1806937255
 30
0.0
 11
285.4348601451
 21
175.0367513159
 31
0.0
  0
LINE
  5
ABE
330
1F
100
AcDbEntity
  8
0
  6
Continuous
 62
     7
370
    25
100
AcDbLine
 10
285.7429374153
 20
175.3448285861
 30
0.0
 11
285.5989950057
 21
175.1806937255
 31
0.0
  0
LINE
  5
ABF
330
1F
100
AcDbEntity
  8
0
  6
Continuous
 62
     7
370
    25
100
AcDbLine
 10
285.8642244792
 20
175.5263475049
 30
0.0
 11
285.7429374153
 21
175.3448285861
 31
0.0
  0
LINE
  5
AC0
330
1F
100
AcDbEntity
  8
0
  6
Continuous
 62
     7
370
    25
100
AcDbLine
 10
285.9607809422
 20
175.7221446427
 30
0.0
 11
285.8642244792
 21
175.5263475049
 31
0.0
  0
LINE
  5
AC1
330
1F
100
AcDbEntity
  8
0
  6
Continuous
 62
     7
370
    25
100
AcDbLine
 10
286.0309546964
 20
175.9288698564
 30
0.0
 11
285.9607809422
 21
175.7221446427
 31
0.0
  0
LINE
  5
AC2
330
1F
100
AcDbEntity
  8
0
  6
Continuous
 62
     7
370
    25
100
AcDbLine
 10
286.0735450494
 20
176.1429860201
 30
0.0
 11
286.0309546964
 21
175.9288698564
 31
0.0
  0
LINE
  5
AC3
330
1F
100
AcDbEntity
  8
0
  6
Continuous
 62
     7
370
    25
100
AcDbLine
 10
286.0735450494
 20
189.3923406621
 30
0.0
 11
286.0735450494
 21
176.1429860201
 31
0.0
  0
LINE
  5
AC4
330
1F
100
AcDbEntity
  8
0
  6
Continuous
 62
     7
370
    25
100
AcDbLine
 10
286.0309546964
 20
189.6064568258
 30
0.0
 11
286.0735450494
 21
189.3923406621
 31
0.0
  0
LINE
  5
AC5
330
1F
100
AcDbEntity
  8
0
  6
Continuous
 62
     7
370
    25
100
AcDbLine
 10
285.9607809422
 20
189.8131820395
 30
0.0
 11
286.0309546964
 21
189.6064568258
 31
0.0
  0
LINE
  5
AC6
330
1F
100
AcDbEntity
  8
0
  6
Continuous
 62
     7
370
    25
100
AcDbLine
 10
285.8642244792
 20
190.0089791774
 30
0.0
 11
285.9607809422
 21
189.8131820395
 31
0.0
  0
LINE
  5
AC7
330
1F
100
AcDbEntity
  8
0
  6
Continuous
 62
     7
370
    25
100
AcDbLine
 10
285.7429374153
 20
190.1904980961
 30
0.0
 11
285.8642244792
 21
190.0089791774
 31
0.0
  0
LINE
  5
AC8
330
1F
100
AcDbEntity
  8
0
  6
Continuous
 62
     7
370
    25
100
AcDbLine
 10
293.8907006184
 20
-0.8245210365
 30
0.0
 11
293.4961904358
 21
-1.0190719286
 31
0.0
  0
LINE
  5
AC9
330
1F
100
AcDbEntity
  8
0
  6
Continuous
 62
     7
370
    25
100
AcDbLine
 10
293.4961904358
 20
-1.0190719286
 30
0.0
 11
293.0796613553
 21
-1.1604644989
 31
0.0
  0
LINE
  5
ACA
330
1F
100
AcDbEntity
  8
0
  6
Continuous
 62
     7
370
    25
100
AcDbLine
 10
293.0796613553
 20
-1.1604644989
 30
0.0
 11
292.648240305
 21
-1.2462794813
 31
0.0
  0
LINE
  5
ACB
330
1F
100
AcDbEntity
  8
0
  6
Continuous
 62
     7
370
    25
100
AcDbLine
 10
292.648240305
 20
-1.2462794813
 30
0.0
 11
292.2093090187
 21
-1.2750485578
 31
0.0
  0
LINE
  5
ACC
330
1F
100
AcDbEntity
  8
0
  6
Continuous
 62
     7
370
    25
100
AcDbLine
 10
292.2093090187
 20
-1.2750485578
 30
0.0
 11
118.8948754178
 21
-1.2750485578
 31
0.0
  0
LINE
  5
ACD
330
1F
100
AcDbEntity
  8
0
  6
Continuous
 62
     7
370
    25
100
AcDbLine
 10
118.8948754178
 20
-1.2750485578
 30
0.0
 11
118.4559441315
 21
-1.2462794813
 31
0.0
  0
LINE
  5
ACE
330
1F
100
AcDbEntity
  8
0
  6
Continuous
 62
     7
370
    25
100
AcDbLine
 10
118.4559441315
 20
-1.2462794813
 30
0.0
 11
118.0245230813
 21
-1.1604644989
 31
0.0
  0
LINE
  5
ACF
330
1F
100
AcDbEntity
  8
0
  6
Continuous
 62
     7
370
    25
100
AcDbLine
 10
118.0245230813
 20
-1.1604644989
 30
0.0
 11
117.6079940008
 21
-1.0190719286
 31
0.0
  0
LINE
  5
AD0
330
1F
100
AcDbEntity
  8
0
  6
Continuous
 62
     7
370
    25
100
AcDbLine
 10
117.6079940008
 20
-1.0190719286
 30
0.0
 11
117.2134838181
 21
-0.8245210365
 31
0.0
  0
LINE
  5
AD1
330
1F
100
AcDbEntity
  8
0
  6
Continuous
 62
     7
370
    25
100
AcDbLine
 10
117.2134838181
 20
-0.8245210365
 30
0.0
 11
116.8477427119
 21
-0.5801406423
 31
0.0
  0
LINE
  5
AD2
330
1F
100
AcDbEntity
  8
0
  6
Continuous
 62
     7
370
    25
100
AcDbLine
 10
116.8477427119
 20
-0.5801406423
 30
0.0
 11
116.5170286139
 21
-0.2901121623
 31
0.0
  0
LINE
  5
AD3
330
1F
100
AcDbEntity
  8
0
  6
Continuous
 62
     7
370
    25
100
AcDbLine
 10
116.5170286139
 20
-0.2901121623
 30
0.0
 11
116.2270001339
 21
0.0406019357
 31
0.0
  0
LINE
  5
AD4
330
1F
100
AcDbEntity
  8
0
  6
Continuous
 62
     7
370
    25
100
AcDbLine
 10
116.2270001339
 20
0.0406019357
 30
0.0
 11
115.9826197397
 21
0.4063430419
 31
0.0
  0
LINE
  5
AD5
330
1F
100
AcDbEntity
  8
0
  6
Continuous
 62
     7
370
    25
100
AcDbLine
 10
115.9826197397
 20
0.4063430419
 30
0.0
 11
115.7880688476
 21
0.8008532246
 31
0.0
  0
LINE
  5
AD6
330
1F
100
AcDbEntity
  8
0
  6
Continuous
 62
     7
370
    25
100
AcDbLine
 10
115.7880688476
 20
0.8008532246
 30
0.0
 11
115.6466762773
 21
1.2173823051
 31
0.0
  0
LINE
  5
AD7
330
1F
100
AcDbEntity
  8
0
  6
Continuous
 62
     7
370
    25
100
AcDbLine
 10
115.6466762773
 20
1.2173823051
 30
0.0
 11
115.5608612949
 21
1.6488033553
 31
0.0
  0
LINE
  5
AD8
330
1F
100
AcDbEntity
  8
0
  6
Continuous
 62
     7
370
    25
100
AcDbLine
 10
115.5608612949
 20
1.6488033553
 30
0.0
 11
115.5320922184
 21
2.0877346416
 31
0.0
  0
LINE
  5
AD9
330
1F
100
AcDbEntity
  8
0
  6
Continuous
 62
     7
370
    25
100
AcDbLine
 10
115.5320922184
 20
2.0877346416
 30
0.0
 11
115.5320922184
 21
111.4409322252
 31
0.0
  0
LINE
  5
ADA
330
1F
100
AcDbEntity
  8
0
  6
Continuous
 62
     7
370
    25
100
AcDbLine
 10
115.5320922184
 20
111.4409322252
 30
0.0
 11
115.612338178
 21
113.8446862313
 31
0.0
  0
LINE
  5
ADB
330
1F
100
AcDbEntity
  8
0
  6
Continuous
 62
     7
370
    25
100
AcDbLine
 10
115.612338178
 20
113.8446862313
 30
0.0
 11
115.7125618573
 21
115.0432170343
 31
0.0
  0
LINE
  5
ADC
330
1F
100
AcDbEntity
  8
0
  6
Continuous
 62
     7
370
    25
100
AcDbLine
 10
115.7125618573
 20
115.0432170343
 30
0.0
 11
115.8527187299
 21
116.2377365706
 31
0.0
  0
LINE
  5
ADD
330
1F
100
AcDbEntity
  8
0
  6
Continuous
 62
     7
370
    25
100
AcDbLine
 10
115.8527187299
 20
116.2377365706
 30
0.0
 11
116.0326527265
 21
117.426914702
 31
0.0
  0
LINE
  5
ADE
330
1F
100
AcDbEntity
  8
0
  6
Continuous
 62
     7
370
    25
100
AcDbLine
 10
116.0326527265
 20
117.426914702
 30
0.0
 11
116.2521634844
 21
118.6094272384
 31
0.0
  0
LINE
  5
ADF
330
1F
100
AcDbEntity
  8
0
  6
Continuous
 62
     7
370
    25
100
AcDbLine
 10
116.2521634844
 20
118.6094272384
 30
0.0
 11
116.511006571
 21
119.7839574118
 31
0.0
  0
LINE
  5
AE0
330
1F
100
AcDbEntity
  8
0
  6
Continuous
 62
     7
370
    25
100
AcDbLine
 10
116.511006571
 20
119.7839574118
 30
0.0
 11
116.8088937556
 21
120.9491973428
 31
0.0
  0
LINE
  5
AE1
330
1F
100
AcDbEntity
  8
0
  6
Continuous
 62
     7
370
    25
100
AcDbLine
 10
116.8088937556
 20
120.9491973428
 30
0.0
 11
117.1454933307
 21
122.1038494971
 31
0.0
  0
LINE
  5
AE2
330
1F
100
AcDbEntity
  8
0
  6
Continuous
 62
     7
370
    25
100
AcDbLine
 10
117.1454933307
 20
122.1038494971
 30
0.0
 11
117.5204304814
 21
123.2466281304
 31
0.0
  0
LINE
  5
AE3
330
1F
100
AcDbEntity
  8
0
  6
Continuous
 62
     7
370
    25
100
AcDbLine
 10
117.5204304814
 20
123.2466281304
 30
0.0
 11
118.3836052626
 21
125.4914893807
 31
0.0
  0
LINE
  5
AE4
330
1F
100
AcDbEntity
  8
0
  6
Continuous
 62
     7
370
    25
100
AcDbLine
 10
118.3836052626
 20
125.4914893807
 30
0.0
 11
176.4754968745
 21
220.473251164
 31
0.0
  0
LINE
  5
AE5
330
1F
100
AcDbEntity
  8
0
  6
Continuous
 62
     7
370
    25
100
AcDbLine
 10
176.4754968745
 20
220.473251164
 30
0.0
 11
177.0461876504
 21
221.3217567977
 31
0.0
  0
LINE
  5
AE6
330
1F
100
AcDbEntity
  8
0
  6
Continuous
 62
     7
370
    25
100
AcDbLine
 10
177.0461876504
 20
221.3217567977
 30
0.0
 11
177.6869379744
 21
222.1186813827
 31
0.0
  0
LINE
  5
AE7
330
1F
100
AcDbEntity
  8
0
  6
Continuous
 62
     7
370
    25
100
AcDbLine
 10
177.6869379744
 20
222.1186813827
 30
0.0
 11
178.3931097699
 21
222.8582563738
 31
0.0
  0
LINE
  5
AE8
330
1F
100
AcDbEntity
  8
0
  6
Continuous
 62
     7
370
    25
100
AcDbLine
 10
178.3931097699
 20
222.8582563738
 30
0.0
 11
179.1595914061
 21
223.5351283508
 31
0.0
  0
LINE
  5
AE9
330
1F
100
AcDbEntity
  8
0
  6
Continuous
 62
     7
370
    25
100
AcDbLine
 10
179.1595914061
 20
223.5351283508
 30
0.0
 11
179.9808346993
 21
224.1443977703
 31
0.0
  0
LINE
  5
AEA
330
1F
100
AcDbEntity
  8
0
  6
Continuous
 62
     7
370
    25
100
AcDbLine
 10
179.9808346993
 20
224.1443977703
 30
0.0
 11
180.8508950727
 21
224.6816544303
 31
0.0
  0
LINE
  5
AEB
330
1F
100
AcDbEntity
  8
0
  6
Continuous
 62
     7
370
    25
100
AcDbLine
 10
180.8508950727
 20
224.6816544303
 30
0.0
 11
181.7634745869
 21
225.1430093938
 31
0.0
  0
LINE
  5
AEC
330
1F
100
AcDbEntity
  8
0
  6
Continuous
 62
     7
370
    25
100
AcDbLine
 10
181.7634745869
 20
225.1430093938
 30
0.0
 11
182.7119675272
 21
225.5251231389
 31
0.0
  0
LINE
  5
AED
330
1F
100
AcDbEntity
  8
0
  6
Continuous
 62
     7
370
    25
100
AcDbLine
 10
182.7119675272
 20
225.5251231389
 30
0.0
 11
183.6895082193
 21
225.8252297321
 31
0.0
  0
LINE
  5
AEE
330
1F
100
AcDbEntity
  8
0
  6
Continuous
 62
     7
370
    25
100
AcDbLine
 10
183.6895082193
 20
225.8252297321
 30
0.0
 11
184.6890207266
 21
226.0411568492
 31
0.0
  0
LINE
  5
AEF
330
1F
100
AcDbEntity
  8
0
  6
Continuous
 62
     7
370
    25
100
AcDbLine
 10
184.6890207266
 20
226.0411568492
 30
0.0
 11
185.7032700691
 21
226.1713414999
 31
0.0
  0
LINE
  5
AF0
330
1F
100
AcDbEntity
  8
0
  6
Continuous
 62
     7
370
    25
100
AcDbLine
 10
185.7032700691
 20
226.1713414999
 30
0.0
 11
186.7249145943
 21
226.2148413414
 31
0.0
  0
LINE
  5
AF1
330
1F
100
AcDbEntity
  8
0
  6
Continuous
 62
     7
370
    25
100
AcDbLine
 10
186.7249145943
 20
226.2148413414
 30
0.0
 11
285.9080768999
 21
226.2148413414
 31
0.0
  0
LINE
  5
AF2
330
1F
100
AcDbEntity
  8
0
  6
Continuous
 62
     7
370
    25
100
AcDbLine
 10
285.9080768999
 20
226.2148413414
 30
0.0
 11
287.169687132
 21
226.1321506681
 31
0.0
  0
LINE
  5
AF3
330
1F
100
AcDbEntity
  8
0
  6
Continuous
 62
     7
370
    25
100
AcDbLine
 10
287.169687132
 20
226.1321506681
 30
0.0
 11
288.409710671
 21
225.8854935213
 31
0.0
  0
LINE
  5
AF4
330
1F
100
AcDbEntity
  8
0
  6
Continuous
 62
     7
370
    25
100
AcDbLine
 10
288.409710671
 20
225.8854935213
 30
0.0
 11
289.6069301812
 21
225.4790903107
 31
0.0
  0
LINE
  5
AF5
330
1F
100
AcDbEntity
  8
0
  6
Continuous
 62
     7
370
    25
100
AcDbLine
 10
289.6069301812
 20
225.4790903107
 30
0.0
 11
290.7408607225
 21
224.9198947699
 31
0.0
  0
LINE
  5
AF6
330
1F
100
AcDbEntity
  8
0
  6
Continuous
 62
     7
370
    25
100
AcDbLine
 10
290.7408607225
 20
224.9198947699
 30
0.0
 11
291.792100256
 21
224.2174749748
 31
0.0
  0
LINE
  5
AF7
330
1F
100
AcDbEntity
  8
0
  6
Continuous
 62
     7
370
    25
100
AcDbLine
 10
291.792100256
 20
224.2174749748
 30
0.0
 11
292.7426616215
 21
223.38384963
 31
0.0
  0
LINE
  5
AF8
330
1F
100
AcDbEntity
  8
0
  6
Continuous
 62
     7
370
    25
100
AcDbLine
 10
292.7426616215
 20
223.38384963
 30
0.0
 11
293.5762803058
 21
222.4332824233
 31
0.0
  0
LINE
  5
AF9
330
1F
100
AcDbEntity
  8
0
  6
Continuous
 62
     7
370
    25
100
AcDbLine
 10
293.5762803058
 20
222.4332824233
 30
0.0
 11
294.278692735
 21
221.382037968
 31
0.0
  0
LINE
  5
AFA
330
1F
100
AcDbEntity
  8
0
  6
Continuous
 62
     7
370
    25
100
AcDbLine
 10
294.278692735
 20
221.382037968
 30
0.0
 11
294.8378803304
 21
220.2481035086
 31
0.0
  0
LINE
  5
AFB
330
1F
100
AcDbEntity
  8
0
  6
Continuous
 62
     7
370
    25
100
AcDbLine
 10
294.8378803304
 20
220.2481035086
 30
0.0
 11
295.2442751522
 21
219.0508811507
 31
0.0
  0
LINE
  5
AFC
330
1F
100
AcDbEntity
  8
0
  6
Continuous
 62
     7
370
    25
100
AcDbLine
 10
295.2442751522
 20
219.0508811507
 30
0.0
 11
295.4909236102
 21
217.8108558835
 31
0.0
  0
LINE
  5
AFD
330
1F
100
AcDbEntity
  8
0
  6
Continuous
 62
     7
370
    25
100
AcDbLine
 10
295.4909236102
 20
217.8108558835
 30
0.0
 11
295.5736054435
 21
216.549245072
 31
0.0
  0
LINE
  5
AFE
330
1F
100
AcDbEntity
  8
0
  6
Continuous
 62
     7
370
    25
100
AcDbLine
 10
295.5736054435
 20
216.549245072
 30
0.0
 11
295.5720922181
 21
2.0877346416
 31
0.0
  0
LINE
  5
AFF
330
1F
100
AcDbEntity
  8
0
  6
Continuous
 62
     7
370
    25
100
AcDbLine
 10
295.5720922181
 20
2.0877346416
 30
0.0
 11
295.5433231417
 21
1.6488033553
 31
0.0
  0
LINE
  5
B00
330
1F
100
AcDbEntity
  8
0
  6
Continuous
 62
     7
370
    25
100
AcDbLine
 10
295.5433231417
 20
1.6488033553
 30
0.0
 11
295.4575081592
 21
1.2173823051
 31
0.0
  0
LINE
  5
B01
330
1F
100
AcDbEntity
  8
0
  6
Continuous
 62
     7
370
    25
100
AcDbLine
 10
295.4575081592
 20
1.2173823051
 30
0.0
 11
295.3161155889
 21
0.8008532246
 31
0.0
  0
LINE
  5
B02
330
1F
100
AcDbEntity
  8
0
  6
Continuous
 62
     7
370
    25
100
AcDbLine
 10
295.3161155889
 20
0.8008532246
 30
0.0
 11
295.1215646968
 21
0.4063430419
 31
0.0
  0
LINE
  5
B03
330
1F
100
AcDbEntity
  8
0
  6
Continuous
 62
     7
370
    25
100
AcDbLine
 10
295.1215646968
 20
0.4063430419
 30
0.0
 11
294.8771843026
 21
0.0406019357
 31
0.0
  0
LINE
  5
B04
330
1F
100
AcDbEntity
  8
0
  6
Continuous
 62
     7
370
    25
100
AcDbLine
 10
294.8771843026
 20
0.0406019357
 30
0.0
 11
294.5871558227
 21
-0.2901121623
 31
0.0
  0
LINE
  5
B05
330
1F
100
AcDbEntity
  8
0
  6
Continuous
 62
     7
370
    25
100
AcDbLine
 10
294.5871558227
 20
-0.2901121623
 30
0.0
 11
294.2564417246
 21
-0.5801406423
 31
0.0
  0
LINE
  5
B06
330
1F
100
AcDbEntity
  8
0
  6
Continuous
 62
     7
370
    25
100
AcDbLine
 10
294.2564417246
 20
-0.5801406423
 30
0.0
 11
293.8907006184
 21
-0.8245210365
 31
0.0
  0
LINE
  5
B07
330
1F
100
AcDbEntity
  8
0
  6
Continuous
 62
     7
370
    25
100
AcDbLine
 10
257.7476883036
 20
186.4985173852
 30
0.0
 11
257.2299213546
 21
186.8958139632
 31
0.0
  0
LINE
  5
B08
330
1F
100
AcDbEntity
  8
0
  6
Continuous
 62
     7
370
    25
100
AcDbLine
 10
390.637321034
 20
167.9709959299
 30
0.0
 11
390.5447997562
 21
167.2681887339
 31
0.0
  0
LINE
  5
B09
330
1F
100
AcDbEntity
  8
0
  6
Continuous
 62
     7
370
    25
100
AcDbLine
 10
390.5447997562
 20
167.2681887339
 30
0.0
 11
390.6373309519
 21
166.5653828437
 31
0.0
  0
LINE
  5
B0A
330
1F
100
AcDbEntity
  8
0
  6
Continuous
 62
     7
370
    25
100
AcDbLine
 10
390.6373309519
 20
166.5653828437
 30
0.0
 11
390.908608773
 21
165.9104733192
 31
0.0
  0
LINE
  5
B0B
330
1F
100
AcDbEntity
  8
0
  6
Continuous
 62
     7
370
    25
100
AcDbLine
 10
390.908608773
 20
165.9104733192
 30
0.0
 11
391.3401460842
 21
165.3480911621
 31
0.0
  0
LINE
  5
B0C
330
1F
100
AcDbEntity
  8
0
  6
Continuous
 62
     7
370
    25
100
AcDbLine
 10
391.3401460842
 20
165.3480911621
 30
0.0
 11
391.902534331
 21
164.9165617872
 31
0.0
  0
LINE
  5
B0D
330
1F
100
AcDbEntity
  8
0
  6
Continuous
 62
     7
370
    25
100
AcDbLine
 10
391.902534331
 20
164.9165617872
 30
0.0
 11
392.5574476837
 21
164.6452932082
 31
0.0
  0
LINE
  5
B0E
330
1F
100
AcDbEntity
  8
0
  6
Continuous
 62
     7
370
    25
100
AcDbLine
 10
392.5574476837
 20
164.6452932082
 30
0.0
 11
393.2602548796
 21
164.5527719304
 31
0.0
  0
LINE
  5
B0F
330
1F
100
AcDbEntity
  8
0
  6
Continuous
 62
     7
370
    25
100
AcDbLine
 10
393.2602548796
 20
164.5527719304
 30
0.0
 11
393.9630607699
 21
164.6453031261
 31
0.0
  0
LINE
  5
B10
330
1F
100
AcDbEntity
  8
0
  6
Continuous
 62
     7
370
    25
100
AcDbLine
 10
393.9630607699
 20
164.6453031261
 30
0.0
 11
394.6179702944
 21
164.9165809471
 31
0.0
  0
LINE
  5
B11
330
1F
100
AcDbEntity
  8
0
  6
Continuous
 62
     7
370
    25
100
AcDbLine
 10
394.6179702944
 20
164.9165809471
 30
0.0
 11
395.1803524515
 21
165.3481182583
 31
0.0
  0
LINE
  5
B12
330
1F
100
AcDbEntity
  8
0
  6
Continuous
 62
     7
370
    25
100
AcDbLine
 10
395.1803524515
 20
165.3481182583
 30
0.0
 11
395.6118818264
 21
165.9105065051
 31
0.0
  0
LINE
  5
B13
330
1F
100
AcDbEntity
  8
0
  6
Continuous
 62
     7
370
    25
100
AcDbLine
 10
395.6118818264
 20
165.9105065051
 30
0.0
 11
395.8831504054
 21
166.5654198578
 31
0.0
  0
LINE
  5
B14
330
1F
100
AcDbEntity
  8
0
  6
Continuous
 62
     7
370
    25
100
AcDbLine
 10
395.8831504054
 20
166.5654198578
 30
0.0
 11
395.9756716832
 21
167.2682270538
 31
0.0
  0
LINE
  5
B15
330
1F
100
AcDbEntity
  8
0
  6
Continuous
 62
     7
370
    25
100
AcDbLine
 10
395.9756716832
 20
167.2682270538
 30
0.0
 11
395.8831404875
 21
167.971032944
 31
0.0
  0
LINE
  5
B16
330
1F
100
AcDbEntity
  8
0
  6
Continuous
 62
     7
370
    25
100
AcDbLine
 10
395.8831404875
 20
167.971032944
 30
0.0
 11
395.6118626665
 21
168.6259424686
 31
0.0
  0
LINE
  5
B17
330
1F
100
AcDbEntity
  8
0
  6
Continuous
 62
     7
370
    25
100
AcDbLine
 10
395.6118626665
 20
168.6259424686
 30
0.0
 11
395.1803253553
 21
169.1883246256
 31
0.0
  0
LINE
  5
B18
330
1F
100
AcDbEntity
  8
0
  6
Continuous
 62
     7
370
    25
100
AcDbLine
 10
395.1803253553
 20
169.1883246256
 30
0.0
 11
394.6179371085
 21
169.6198540006
 31
0.0
  0
LINE
  5
B19
330
1F
100
AcDbEntity
  8
0
  6
Continuous
 62
     7
370
    25
100
AcDbLine
 10
394.6179371085
 20
169.6198540006
 30
0.0
 11
393.9630237558
 21
169.8911225796
 31
0.0
  0
LINE
  5
B1A
330
1F
100
AcDbEntity
  8
0
  6
Continuous
 62
     7
370
    25
100
AcDbLine
 10
393.9630237558
 20
169.8911225796
 30
0.0
 11
393.2602165598
 21
169.9836438573
 31
0.0
  0
LINE
  5
B1B
330
1F
100
AcDbEntity
  8
0
  6
Continuous
 62
     7
370
    25
100
AcDbLine
 10
393.2602165598
 20
169.9836438573
 30
0.0
 11
392.5574106695
 21
169.8911126617
 31
0.0
  0
LINE
  5
B1C
330
1F
100
AcDbEntity
  8
0
  6
Continuous
 62
     7
370
    25
100
AcDbLine
 10
392.5574106695
 20
169.8911126617
 30
0.0
 11
391.902501145
 21
169.6198348406
 31
0.0
  0
LINE
  5
B1D
330
1F
100
AcDbEntity
  8
0
  6
Continuous
 62
     7
370
    25
100
AcDbLine
 10
391.902501145
 20
169.6198348406
 30
0.0
 11
391.340118988
 21
169.1882975294
 31
0.0
  0
LINE
  5
B1E
330
1F
100
AcDbEntity
  8
0
  6
Continuous
 62
     7
370
    25
100
AcDbLine
 10
391.340118988
 20
169.1882975294
 30
0.0
 11
390.908589613
 21
168.6259092826
 31
0.0
  0
LINE
  5
B1F
330
1F
100
AcDbEntity
  8
0
  6
Continuous
 62
     7
370
    25
100
AcDbLine
 10
354.9181023239
 20
166.5651308113
 30
0.0
 11
355.189380145
 21
165.9102212868
 31
0.0
  0
LINE
  5
B20
330
1F
100
AcDbEntity
  8
0
  6
Continuous
 62
     7
370
    25
100
AcDbLine
 10
355.189380145
 20
165.9102212868
 30
0.0
 11
355.6209174562
 21
165.3478391297
 31
0.0
  0
LINE
  5
B21
330
1F
100
AcDbEntity
  8
0
  6
Continuous
 62
     7
370
    25
100
AcDbLine
 10
355.6209174562
 20
165.3478391297
 30
0.0
 11
356.183305703
 21
164.9163097548
 31
0.0
  0
LINE
  5
B22
330
1F
100
AcDbEntity
  8
0
  6
Continuous
 62
     7
370
    25
100
AcDbLine
 10
356.183305703
 20
164.9163097548
 30
0.0
 11
356.8382190557
 21
164.6450411758
 31
0.0
  0
LINE
  5
B23
330
1F
100
AcDbEntity
  8
0
  6
Continuous
 62
     7
370
    25
100
AcDbLine
 10
356.8382190557
 20
164.6450411758
 30
0.0
 11
357.5410262516
 21
164.552519898
 31
0.0
  0
LINE
  5
B24
330
1F
100
AcDbEntity
  8
0
  6
Continuous
 62
     7
370
    25
100
AcDbLine
 10
357.5410262516
 20
164.552519898
 30
0.0
 11
358.2438321419
 21
164.6450510937
 31
0.0
  0
LINE
  5
B25
330
1F
100
AcDbEntity
  8
0
  6
Continuous
 62
     7
370
    25
100
AcDbLine
 10
358.2438321419
 20
164.6450510937
 30
0.0
 11
358.8987416664
 21
164.9163289148
 31
0.0
  0
LINE
  5
B26
330
1F
100
AcDbEntity
  8
0
  6
Continuous
 62
     7
370
    25
100
AcDbLine
 10
358.8987416664
 20
164.9163289148
 30
0.0
 11
359.4611238235
 21
165.347866226
 31
0.0
  0
LINE
  5
B27
330
1F
100
AcDbEntity
  8
0
  6
Continuous
 62
     7
370
    25
100
AcDbLine
 10
359.4611238235
 20
165.347866226
 30
0.0
 11
359.8926531984
 21
165.9102544727
 31
0.0
  0
LINE
  5
B28
330
1F
100
AcDbEntity
  8
0
  6
Continuous
 62
     7
370
    25
100
AcDbLine
 10
359.8926531984
 20
165.9102544727
 30
0.0
 11
360.1639217774
 21
166.5651678255
 31
0.0
  0
LINE
  5
B29
330
1F
100
AcDbEntity
  8
0
  6
Continuous
 62
     7
370
    25
100
AcDbLine
 10
360.1639217774
 20
166.5651678255
 30
0.0
 11
360.2564430552
 21
167.2679750214
 31
0.0
  0
LINE
  5
B2A
330
1F
100
AcDbEntity
  8
0
  6
Continuous
 62
     7
370
    25
100
AcDbLine
 10
360.2564430552
 20
167.2679750214
 30
0.0
 11
360.1639118595
 21
167.9707809117
 31
0.0
  0
LINE
  5
B2B
330
1F
100
AcDbEntity
  8
0
  6
Continuous
 62
     7
370
    25
100
AcDbLine
 10
360.1639118595
 20
167.9707809117
 30
0.0
 11
359.8926340385
 21
168.6256904362
 31
0.0
  0
LINE
  5
B2C
330
1F
100
AcDbEntity
  8
0
  6
Continuous
 62
     7
370
    25
100
AcDbLine
 10
359.4610967272
 20
169.1880725933
 30
0.0
 11
358.8987084805
 21
169.6196019682
 31
0.0
  0
LINE
  5
B2D
330
1F
100
AcDbEntity
  8
0
  6
Continuous
 62
     7
370
    25
100
AcDbLine
 10
358.8987084805
 20
169.6196019682
 30
0.0
 11
358.2437951277
 21
169.8908705472
 31
0.0
  0
LINE
  5
B2E
330
1F
100
AcDbEntity
  8
0
  6
Continuous
 62
     7
370
    25
100
AcDbLine
 10
358.2437951277
 20
169.8908705472
 30
0.0
 11
357.5409879318
 21
169.983391825
 31
0.0
  0
LINE
  5
B2F
330
1F
100
AcDbEntity
  8
0
  6
Continuous
 62
     7
370
    25
100
AcDbLine
 10
357.5409879318
 20
169.983391825
 30
0.0
 11
356.8381820415
 21
169.8908606293
 31
0.0
  0
LINE
  5
B30
330
1F
100
AcDbEntity
  8
0
  6
Continuous
 62
     7
370
    25
100
AcDbLine
 10
356.8381820415
 20
169.8908606293
 30
0.0
 11
356.183272517
 21
169.6195828083
 31
0.0
  0
LINE
  5
B31
330
1F
100
AcDbEntity
  8
0
  6
Continuous
 62
     7
370
    25
100
AcDbLine
 10
356.183272517
 20
169.6195828083
 30
0.0
 11
355.6208903599
 21
169.188045497
 31
0.0
  0
LINE
  5
B32
330
1F
100
AcDbEntity
  8
0
  6
Continuous
 62
     7
370
    25
100
AcDbLine
 10
355.6208903599
 20
169.188045497
 30
0.0
 11
355.189360985
 21
168.6256572503
 31
0.0
  0
LINE
  5
B33
330
1F
100
AcDbEntity
  8
0
  6
Continuous
 62
     7
370
    25
100
AcDbLine
 10
355.189360985
 20
168.6256572503
 30
0.0
 11
354.918092406
 21
167.9707438975
 31
0.0
  0
LINE
  5
B34
330
1F
100
AcDbEntity
  8
0
  6
Continuous
 62
     7
370
    25
100
AcDbLine
 10
354.918092406
 20
167.9707438975
 30
0.0
 11
354.8255711282
 21
167.2679367016
 31
0.0
  0
LINE
  5
B35
330
1F
100
AcDbEntity
  8
0
  6
Continuous
 62
     7
370
    25
100
AcDbLine
 10
354.8255711282
 20
167.2679367016
 30
0.0
 11
354.9181023239
 21
166.5651308113
 31
0.0
  0
LINE
  5
B36
330
1F
100
AcDbEntity
  8
0
  6
Continuous
 62
     7
370
    25
100
AcDbLine
 10
359.8926340385
 20
168.6256904362
 30
0.0
 11
359.4610967272
 21
169.1880725933
 31
0.0
  0
LINE
  5
B37
330
1F
100
AcDbEntity
  8
0
  6
Continuous
 62
     7
370
    25
100
AcDbLine
 10
399.6627962075
 20
168.4322959502
 30
0.0
 11
399.6276310723
 21
168.5873543753
 31
0.0
  0
LINE
  5
B38
330
1F
100
AcDbEntity
  8
0
  6
Continuous
 62
     7
370
    25
100
AcDbLine
 10
399.6276310723
 20
168.5873543753
 30
0.0
 11
399.6233366059
 21
168.746292286
 31
0.0
  0
LINE
  5
B39
330
1F
100
AcDbEntity
  8
0
  6
Continuous
 62
     7
370
    25
100
AcDbLine
 10
399.6233366059
 20
168.746292286
 30
0.0
 11
399.6500772583
 21
168.9030233916
 31
0.0
  0
LINE
  5
B3A
330
1F
100
AcDbEntity
  8
0
  6
Continuous
 62
     7
370
    25
100
AcDbLine
 10
399.6500772583
 20
168.9030233916
 30
0.0
 11
399.706829036
 21
169.0515459072
 31
0.0
  0
LINE
  5
B3B
330
1F
100
AcDbEntity
  8
0
  6
Continuous
 62
     7
370
    25
100
AcDbLine
 10
399.706829036
 20
169.0515459072
 30
0.0
 11
399.7914187142
 21
169.186172384
 31
0.0
  0
LINE
  5
B3C
330
1F
100
AcDbEntity
  8
0
  6
Continuous
 62
     7
370
    25
100
AcDbLine
 10
399.7914187142
 20
169.186172384
 30
0.0
 11
399.9006070569
 21
169.3017475014
 31
0.0
  0
LINE
  5
B3D
330
1F
100
AcDbEntity
  8
0
  6
Continuous
 62
     7
370
    25
100
AcDbLine
 10
399.9006070569
 20
169.3017475014
 30
0.0
 11
399.8479084121
 21
170.1056865319
 31
0.0
  0
LINE
  5
B3E
330
1F
100
AcDbEntity
  8
0
  6
Continuous
 62
     7
370
    25
100
AcDbLine
 10
399.8479084121
 20
170.1056865319
 30
0.0
 11
399.690725511
 21
170.8958691991
 31
0.0
  0
LINE
  5
B3F
330
1F
100
AcDbEntity
  8
0
  6
Continuous
 62
     7
370
    25
100
AcDbLine
 10
399.690725511
 20
170.8958691991
 30
0.0
 11
399.4317477967
 21
171.6587752586
 31
0.0
  0
LINE
  5
B40
330
1F
100
AcDbEntity
  8
0
  6
Continuous
 62
     7
370
    25
100
AcDbLine
 10
390.908589613
 20
168.6259092826
 30
0.0
 11
390.637321034
 21
167.9709959299
 31
0.0
  0
LINE
  5
B41
330
1F
100
AcDbEntity
  8
0
  6
Continuous
 62
     7
370
    25
100
AcDbLine
 10
399.0754064497
 20
172.381351176
 30
0.0
 11
398.6277985692
 21
173.0512334771
 31
0.0
  0
LINE
  5
B42
330
1F
100
AcDbEntity
  8
0
  6
Continuous
 62
     7
370
    25
100
AcDbLine
 10
398.6277985692
 20
173.0512334771
 30
0.0
 11
398.0965828502
 21
173.65696029
 31
0.0
  0
LINE
  5
B43
330
1F
100
AcDbEntity
  8
0
  6
Continuous
 62
     7
370
    25
100
AcDbLine
 10
398.0965828502
 20
173.65696029
 30
0.0
 11
397.4908485409
 21
174.188167461
 31
0.0
  0
LINE
  5
B44
330
1F
100
AcDbEntity
  8
0
  6
Continuous
 62
     7
370
    25
100
AcDbLine
 10
397.4908485409
 20
174.188167461
 30
0.0
 11
396.8209599233
 21
174.6357658881
 31
0.0
  0
LINE
  5
B45
330
1F
100
AcDbEntity
  8
0
  6
Continuous
 62
     7
370
    25
100
AcDbLine
 10
396.8209599233
 20
174.6357658881
 30
0.0
 11
396.0983789773
 21
174.9920970382
 31
0.0
  0
LINE
  5
B46
330
1F
100
AcDbEntity
  8
0
  6
Continuous
 62
     7
370
    25
100
AcDbLine
 10
396.0983789773
 20
174.9920970382
 30
0.0
 11
395.3354692633
 21
175.2510639865
 31
0.0
  0
LINE
  5
B47
330
1F
100
AcDbEntity
  8
0
  6
Continuous
 62
     7
370
    25
100
AcDbLine
 10
395.3354692633
 20
175.2510639865
 30
0.0
 11
394.545284378
 21
175.4082357366
 31
0.0
  0
LINE
  5
B48
330
1F
100
AcDbEntity
  8
0
  6
Continuous
 62
     7
370
    25
100
AcDbLine
 10
394.545284378
 20
175.4082357366
 30
0.0
 11
393.7413446039
 21
175.4609230364
 31
0.0
  0
LINE
  5
B49
330
1F
100
AcDbEntity
  8
0
  6
Continuous
 62
     7
370
    25
100
AcDbLine
 10
393.7413446039
 20
175.4609230364
 30
0.0
 11
381.9005635984
 21
175.4608394886
 31
0.0
  0
LINE
  5
B4A
330
1F
100
AcDbEntity
  8
0
  6
Continuous
 62
     7
370
    25
100
AcDbLine
 10
381.9005635984
 20
175.4608394886
 30
0.0
 11
378.9005836821
 21
172.6144624471
 31
0.0
  0
LINE
  5
B4B
330
1F
100
AcDbEntity
  8
0
  6
Continuous
 62
     7
370
    25
100
AcDbLine
 10
378.9005836821
 20
172.6144624471
 30
0.0
 11
378.7492917853
 21
172.4172921283
 31
0.0
  0
LINE
  5
B4C
330
1F
100
AcDbEntity
  8
0
  6
Continuous
 62
     7
370
    25
100
AcDbLine
 10
378.7492917853
 20
172.4172921283
 30
0.0
 11
378.6541864681
 21
172.187683001
 31
0.0
  0
LINE
  5
B4D
330
1F
100
AcDbEntity
  8
0
  6
Continuous
 62
     7
370
    25
100
AcDbLine
 10
378.6541864681
 20
172.187683001
 30
0.0
 11
378.6217490007
 21
171.9412825478
 31
0.0
  0
LINE
  5
B4E
330
1F
100
AcDbEntity
  8
0
  6
Continuous
 62
     7
370
    25
100
AcDbLine
 10
378.6217490007
 20
171.9412825478
 30
0.0
 11
378.6541899427
 21
171.6948825519
 31
0.0
  0
LINE
  5
B4F
330
1F
100
AcDbEntity
  8
0
  6
Continuous
 62
     7
370
    25
100
AcDbLine
 10
378.6541899427
 20
171.6948825519
 30
0.0
 11
378.7492984977
 21
171.4652747658
 31
0.0
  0
LINE
  5
B50
330
1F
100
AcDbEntity
  8
0
  6
Continuous
 62
     7
370
    25
100
AcDbLine
 10
378.7492984977
 20
171.4652747658
 30
0.0
 11
378.9005931819
 21
171.2681065733
 31
0.0
  0
LINE
  5
B51
330
1F
100
AcDbEntity
  8
0
  6
Continuous
 62
     7
370
    25
100
AcDbLine
 10
378.9005931819
 20
171.2681065733
 30
0.0
 11
379.0977634921
 21
171.1168146816
 31
0.0
  0
LINE
  5
B52
330
1F
100
AcDbEntity
  8
0
  6
Continuous
 62
     7
370
    25
100
AcDbLine
 10
379.0977634921
 20
171.1168146816
 30
0.0
 11
379.3273726183
 21
171.021709362
 31
0.0
  0
LINE
  5
B53
330
1F
100
AcDbEntity
  8
0
  6
Continuous
 62
     7
370
    25
100
AcDbLine
 10
379.3273726183
 20
171.021709362
 30
0.0
 11
379.5737730712
 21
170.9892718919
 31
0.0
  0
LINE
  5
B54
330
1F
100
AcDbEntity
  8
0
  6
Continuous
 62
     7
370
    25
100
AcDbLine
 10
379.5737730712
 20
170.9892718919
 30
0.0
 11
379.8201730674
 21
171.0217128313
 31
0.0
  0
LINE
  5
B55
330
1F
100
AcDbEntity
  8
0
  6
Continuous
 62
     7
370
    25
100
AcDbLine
 10
379.8201730674
 20
171.0217128313
 30
0.0
 11
380.0497808545
 21
171.1168213839
 31
0.0
  0
LINE
  5
B56
330
1F
100
AcDbEntity
  8
0
  6
Continuous
 62
     7
370
    25
100
AcDbLine
 10
380.0497808545
 20
171.1168213839
 30
0.0
 11
380.2469490415
 21
171.268116059
 31
0.0
  0
LINE
  5
B57
330
1F
100
AcDbEntity
  8
0
  6
Continuous
 62
     7
370
    25
100
AcDbLine
 10
380.2469490415
 20
171.268116059
 30
0.0
 11
382.9005931818
 21
171.2681347971
 31
0.0
  0
LINE
  5
B58
330
1F
100
AcDbEntity
  8
0
  6
Continuous
 62
     7
370
    25
100
AcDbLine
 10
382.9005931818
 20
171.2681347971
 30
0.0
 11
383.9358703239
 21
171.1318454071
 31
0.0
  0
LINE
  5
B59
330
1F
100
AcDbEntity
  8
0
  6
Continuous
 62
     7
370
    25
100
AcDbLine
 10
383.9358703239
 20
171.1318454071
 30
0.0
 11
384.900596963
 21
170.7322505241
 31
0.0
  0
LINE
  5
B5A
330
1F
100
AcDbEntity
  8
0
  6
Continuous
 62
     7
370
    25
100
AcDbLine
 10
384.900596963
 20
170.7322505241
 30
0.0
 11
385.729028573
 21
170.096581879
 31
0.0
  0
LINE
  5
B5B
330
1F
100
AcDbEntity
  8
0
  6
Continuous
 62
     7
370
    25
100
AcDbLine
 10
385.729028573
 20
170.096581879
 30
0.0
 11
386.3647089087
 21
169.2681592396
 31
0.0
  0
LINE
  5
B5C
330
1F
100
AcDbEntity
  8
0
  6
Continuous
 62
     7
370
    25
100
AcDbLine
 10
386.3647089087
 20
169.2681592396
 30
0.0
 11
386.7643174057
 21
168.3034382396
 31
0.0
  0
LINE
  5
B5D
330
1F
100
AcDbEntity
  8
0
  6
Continuous
 62
     7
370
    25
100
AcDbLine
 10
386.7643174057
 20
168.3034382396
 30
0.0
 11
386.9006214054
 21
167.2681630209
 31
0.0
  0
LINE
  5
B5E
330
1F
100
AcDbEntity
  8
0
  6
Continuous
 62
     7
370
    25
100
AcDbLine
 10
386.9006214054
 20
167.2681630209
 30
0.0
 11
386.7643320154
 21
166.2328858788
 31
0.0
  0
LINE
  5
B5F
330
1F
100
AcDbEntity
  8
0
  6
Continuous
 62
     7
370
    25
100
AcDbLine
 10
386.7643320154
 20
166.2328858788
 30
0.0
 11
386.3647371324
 21
165.2681592397
 31
0.0
  0
LINE
  5
B60
330
1F
100
AcDbEntity
  8
0
  6
Continuous
 62
     7
370
    25
100
AcDbLine
 10
386.3647371324
 20
165.2681592397
 30
0.0
 11
385.7290684874
 21
164.4397276297
 31
0.0
  0
LINE
  5
B61
330
1F
100
AcDbEntity
  8
0
  6
Continuous
 62
     7
370
    25
100
AcDbLine
 10
385.7290684874
 20
164.4397276297
 30
0.0
 11
384.9006458479
 21
163.804047294
 31
0.0
  0
LINE
  5
B62
330
1F
100
AcDbEntity
  8
0
  6
Continuous
 62
     7
370
    25
100
AcDbLine
 10
384.9006458479
 20
163.804047294
 30
0.0
 11
383.9359248479
 21
163.4044387969
 31
0.0
  0
LINE
  5
B63
330
1F
100
AcDbEntity
  8
0
  6
Continuous
 62
     7
370
    25
100
AcDbLine
 10
383.9359248479
 20
163.4044387969
 30
0.0
 11
382.9006496292
 21
163.2681347973
 31
0.0
  0
LINE
  5
B64
330
1F
100
AcDbEntity
  8
0
  6
Continuous
 62
     7
370
    25
100
AcDbLine
 10
382.9006496292
 20
163.2681347973
 30
0.0
 11
367.9006496296
 21
163.2680289583
 31
0.0
  0
LINE
  5
B65
330
1F
100
AcDbEntity
  8
0
  6
Continuous
 62
     7
370
    25
100
AcDbLine
 10
367.9006496296
 20
163.2680289583
 30
0.0
 11
366.8653724875
 21
163.4043183483
 31
0.0
  0
LINE
  5
B66
330
1F
100
AcDbEntity
  8
0
  6
Continuous
 62
     7
370
    25
100
AcDbLine
 10
366.8653724875
 20
163.4043183483
 30
0.0
 11
365.9006458484
 21
163.8039132313
 31
0.0
  0
LINE
  5
B67
330
1F
100
AcDbEntity
  8
0
  6
Continuous
 62
     7
370
    25
100
AcDbLine
 10
365.9006458484
 20
163.8039132313
 30
0.0
 11
365.0722142384
 21
164.4395818764
 31
0.0
  0
LINE
  5
B68
330
1F
100
AcDbEntity
  8
0
  6
Continuous
 62
     7
370
    25
100
AcDbLine
 10
365.0722142384
 20
164.4395818764
 30
0.0
 11
364.4365339027
 21
165.2680045158
 31
0.0
  0
LINE
  5
B69
330
1F
100
AcDbEntity
  8
0
  6
Continuous
 62
     7
370
    25
100
AcDbLine
 10
364.4365339027
 20
165.2680045158
 30
0.0
 11
364.0369254057
 21
166.2327255158
 31
0.0
  0
LINE
  5
B6A
330
1F
100
AcDbEntity
  8
0
  6
Continuous
 62
     7
370
    25
100
AcDbLine
 10
364.0369254057
 20
166.2327255158
 30
0.0
 11
363.900621406
 21
167.2680007345
 31
0.0
  0
LINE
  5
B6B
330
1F
100
AcDbEntity
  8
0
  6
Continuous
 62
     7
370
    25
100
AcDbLine
 10
363.900621406
 20
167.2680007345
 30
0.0
 11
364.036910796
 21
168.3032778766
 31
0.0
  0
LINE
  5
B6C
330
1F
100
AcDbEntity
  8
0
  6
Continuous
 62
     7
370
    25
100
AcDbLine
 10
364.036910796
 20
168.3032778766
 30
0.0
 11
364.436505679
 21
169.2680045157
 31
0.0
  0
LINE
  5
B6D
330
1F
100
AcDbEntity
  8
0
  6
Continuous
 62
     7
370
    25
100
AcDbLine
 10
364.436505679
 20
169.2680045157
 30
0.0
 11
365.072174324
 21
170.0964361257
 31
0.0
  0
LINE
  5
B6E
330
1F
100
AcDbEntity
  8
0
  6
Continuous
 62
     7
370
    25
100
AcDbLine
 10
365.072174324
 20
170.0964361257
 30
0.0
 11
365.9005969635
 21
170.7321164614
 31
0.0
  0
LINE
  5
B6F
330
1F
100
AcDbEntity
  8
0
  6
Continuous
 62
     7
370
    25
100
AcDbLine
 10
365.9005969635
 20
170.7321164614
 30
0.0
 11
366.8653179635
 21
171.1317249584
 31
0.0
  0
LINE
  5
B70
330
1F
100
AcDbEntity
  8
0
  6
Continuous
 62
     7
370
    25
100
AcDbLine
 10
366.8653179635
 20
171.1317249584
 30
0.0
 11
367.9005931822
 21
171.2680289581
 31
0.0
  0
LINE
  5
B71
330
1F
100
AcDbEntity
  8
0
  6
Continuous
 62
     7
370
    25
100
AcDbLine
 10
367.9005931822
 20
171.2680289581
 30
0.0
 11
370.5542373225
 21
171.2680476679
 31
0.0
  0
LINE
  5
B72
330
1F
100
AcDbEntity
  8
0
  6
Continuous
 62
     7
370
    25
100
AcDbLine
 10
370.5542373225
 20
171.2680476679
 30
0.0
 11
370.7514076445
 21
171.1167557752
 31
0.0
  0
LINE
  5
B73
330
1F
100
AcDbEntity
  8
0
  6
Continuous
 62
     7
370
    25
100
AcDbLine
 10
370.7514076445
 20
171.1167557752
 30
0.0
 11
370.9810167738
 21
171.0216504629
 31
0.0
  0
LINE
  5
B74
330
1F
100
AcDbEntity
  8
0
  6
Continuous
 62
     7
370
    25
100
AcDbLine
 10
370.9810167738
 20
171.0216504629
 30
0.0
 11
371.2274172277
 21
170.9892130006
 31
0.0
  0
LINE
  5
B75
330
1F
100
AcDbEntity
  8
0
  6
Continuous
 62
     7
370
    25
100
AcDbLine
 10
371.2274172277
 20
170.9892130006
 30
0.0
 11
371.4738172229
 21
171.0216539478
 31
0.0
  0
LINE
  5
B76
330
1F
100
AcDbEntity
  8
0
  6
Continuous
 62
     7
370
    25
100
AcDbLine
 10
371.4738172229
 20
171.0216539478
 30
0.0
 11
371.703425007
 21
171.1167625076
 31
0.0
  0
LINE
  5
B77
330
1F
100
AcDbEntity
  8
0
  6
Continuous
 62
     7
370
    25
100
AcDbLine
 10
371.703425007
 20
171.1167625076
 30
0.0
 11
371.9005931821
 21
171.2680571818
 31
0.0
  0
LINE
  5
B78
330
1F
100
AcDbEntity
  8
0
  6
Continuous
 62
     7
370
    25
100
AcDbLine
 10
371.9005931821
 20
171.2680571818
 30
0.0
 11
372.0518850839
 21
171.4652275094
 31
0.0
  0
LINE
  5
B79
330
1F
100
AcDbEntity
  8
0
  6
Continuous
 62
     7
370
    25
100
AcDbLine
 10
372.0518850839
 20
171.4652275094
 30
0.0
 11
372.1469903987
 21
171.6948366376
 31
0.0
  0
LINE
  5
B7A
330
1F
100
AcDbEntity
  8
0
  6
Continuous
 62
     7
370
    25
100
AcDbLine
 10
372.1469903987
 20
171.6948366376
 30
0.0
 11
372.1794278635
 21
171.9412370912
 31
0.0
  0
LINE
  5
B7B
330
1F
100
AcDbEntity
  8
0
  6
Continuous
 62
     7
370
    25
100
AcDbLine
 10
372.1794278635
 20
171.9412370912
 30
0.0
 11
372.1469869189
 21
172.1876370867
 31
0.0
  0
LINE
  5
B7C
330
1F
100
AcDbEntity
  8
0
  6
Continuous
 62
     7
370
    25
100
AcDbLine
 10
372.1469869189
 20
172.1876370867
 30
0.0
 11
372.0518783615
 21
172.4172448718
 31
0.0
  0
LINE
  5
B7D
330
1F
100
AcDbEntity
  8
0
  6
Continuous
 62
     7
370
    25
100
AcDbLine
 10
372.0518783615
 20
172.4172448718
 30
0.0
 11
371.9005836823
 21
172.6144130556
 31
0.0
  0
LINE
  5
B7E
330
1F
100
AcDbEntity
  8
0
  6
Continuous
 62
     7
370
    25
100
AcDbLine
 10
371.9005836823
 20
172.6144130556
 30
0.0
 11
368.9005635987
 21
175.4607477616
 31
0.0
  0
LINE
  5
B7F
330
1F
100
AcDbEntity
  8
0
  6
Continuous
 62
     7
370
    25
100
AcDbLine
 10
368.9005635987
 20
175.4607477616
 30
0.0
 11
357.0597825931
 21
175.4606642138
 31
0.0
  0
LINE
  5
B80
330
1F
100
AcDbEntity
  8
0
  6
Continuous
 62
     7
370
    25
100
AcDbLine
 10
357.0597825931
 20
175.4606642138
 30
0.0
 11
356.2558435626
 21
175.407965569
 31
0.0
  0
LINE
  5
B81
330
1F
100
AcDbEntity
  8
0
  6
Continuous
 62
     7
370
    25
100
AcDbLine
 10
356.2558435626
 20
175.407965569
 30
0.0
 11
355.4656608954
 21
175.2507826679
 31
0.0
  0
LINE
  5
B82
330
1F
100
AcDbEntity
  8
0
  6
Continuous
 62
     7
370
    25
100
AcDbLine
 10
355.4656608954
 20
175.2507826679
 30
0.0
 11
354.7027548359
 21
174.9918049536
 31
0.0
  0
LINE
  5
B83
330
1F
100
AcDbEntity
  8
0
  6
Continuous
 62
     7
370
    25
100
AcDbLine
 10
354.7027548359
 20
174.9918049536
 30
0.0
 11
353.9801789185
 21
174.6354636066
 31
0.0
  0
LINE
  5
B84
330
1F
100
AcDbEntity
  8
0
  6
Continuous
 62
     7
370
    25
100
AcDbLine
 10
353.9801789185
 20
174.6354636066
 30
0.0
 11
353.3102966174
 21
174.1878557261
 31
0.0
  0
LINE
  5
B85
330
1F
100
AcDbEntity
  8
0
  6
Continuous
 62
     7
370
    25
100
AcDbLine
 10
353.3102966174
 20
174.1878557261
 30
0.0
 11
352.7045698045
 21
173.6566400071
 31
0.0
  0
LINE
  5
B86
330
1F
100
AcDbEntity
  8
0
  6
Continuous
 62
     7
370
    25
100
AcDbLine
 10
352.7045698045
 20
173.6566400071
 30
0.0
 11
352.1733626335
 21
173.0509056978
 31
0.0
  0
LINE
  5
B87
330
1F
100
AcDbEntity
  8
0
  6
Continuous
 62
     7
370
    25
100
AcDbLine
 10
352.1733626335
 20
173.0509056978
 30
0.0
 11
351.7257642064
 21
172.3810170802
 31
0.0
  0
LINE
  5
B88
330
1F
100
AcDbEntity
  8
0
  6
Continuous
 62
     7
370
    25
100
AcDbLine
 10
351.7257642064
 20
172.3810170802
 30
0.0
 11
351.3694330563
 21
171.6584361342
 31
0.0
  0
LINE
  5
B89
330
1F
100
AcDbEntity
  8
0
  6
Continuous
 62
     7
370
    25
100
AcDbLine
 10
351.3694330563
 20
171.6584361342
 30
0.0
 11
351.110466108
 21
170.8955264202
 31
0.0
  0
LINE
  5
B8A
330
1F
100
AcDbEntity
  8
0
  6
Continuous
 62
     7
370
    25
100
AcDbLine
 10
351.110466108
 20
170.8955264202
 30
0.0
 11
350.9532943579
 21
170.1053415349
 31
0.0
  0
LINE
  5
B8B
330
1F
100
AcDbEntity
  8
0
  6
Continuous
 62
     7
370
    25
100
AcDbLine
 10
350.9532943579
 20
170.1053415349
 30
0.0
 11
350.9006070581
 21
169.3014017608
 31
0.0
  0
LINE
  5
B8C
330
1F
100
AcDbEntity
  8
0
  6
Continuous
 62
     7
370
    25
100
AcDbLine
 10
350.9006070581
 20
169.3014017608
 30
0.0
 11
351.0097970318
 21
169.1858281843
 31
0.0
  0
LINE
  5
B8D
330
1F
100
AcDbEntity
  8
0
  6
Continuous
 62
     7
370
    25
100
AcDbLine
 10
351.0097970318
 20
169.1858281843
 30
0.0
 11
351.0943886098
 21
169.0512029012
 31
0.0
  0
LINE
  5
B8E
330
1F
100
AcDbEntity
  8
0
  6
Continuous
 62
     7
370
    25
100
AcDbLine
 10
351.0943886098
 20
169.0512029012
 30
0.0
 11
351.1511424835
 21
168.9026811865
 31
0.0
  0
LINE
  5
B8F
330
1F
100
AcDbEntity
  8
0
  6
Continuous
 62
     7
370
    25
100
AcDbLine
 10
351.1511424835
 20
168.9026811865
 30
0.0
 11
351.1778853477
 21
168.7459504583
 31
0.0
  0
LINE
  5
B90
330
1F
100
AcDbEntity
  8
0
  6
Continuous
 62
     7
370
    25
100
AcDbLine
 10
351.1778853477
 20
168.7459504583
 30
0.0
 11
351.1735931241
 21
168.587012487
 31
0.0
  0
LINE
  5
B91
330
1F
100
AcDbEntity
  8
0
  6
Continuous
 62
     7
370
    25
100
AcDbLine
 10
351.1735931241
 20
168.587012487
 30
0.0
 11
351.1384301771
 21
168.4319535656
 31
0.0
  0
LINE
  5
B92
330
1F
100
AcDbEntity
  8
0
  6
Continuous
 62
     7
370
    25
100
AcDbLine
 10
351.1384301771
 20
168.4319535656
 30
0.0
 11
351.0737430195
 21
168.2867114452
 31
0.0
  0
LINE
  5
B93
330
1F
100
AcDbEntity
  8
0
  6
Continuous
 62
     7
370
    25
100
AcDbLine
 10
351.0737430195
 20
168.2867114452
 30
0.0
 11
350.9820087497
 21
168.1568479565
 31
0.0
  0
LINE
  5
B94
330
1F
100
AcDbEntity
  8
0
  6
Continuous
 62
     7
370
    25
100
AcDbLine
 10
350.9820087497
 20
168.1568479565
 30
0.0
 11
350.8667401952
 21
168.047336029
 31
0.0
  0
LINE
  5
B95
330
1F
100
AcDbEntity
  8
0
  6
Continuous
 62
     7
370
    25
100
AcDbLine
 10
350.8667401952
 20
168.047336029
 30
0.0
 11
350.7323513939
 21
167.9623692589
 31
0.0
  0
LINE
  5
B96
330
1F
100
AcDbEntity
  8
0
  6
Continuous
 62
     7
370
    25
100
AcDbLine
 10
350.7323513939
 20
167.9623692589
 30
0.0
 11
350.5839885651
 21
167.9052013225
 31
0.0
  0
LINE
  5
B97
330
1F
100
AcDbEntity
  8
0
  6
Continuous
 62
     7
370
    25
100
AcDbLine
 10
350.5839885651
 20
167.9052013225
 30
0.0
 11
350.4273330427
 21
167.8780213807
 31
0.0
  0
LINE
  5
B98
330
1F
100
AcDbEntity
  8
0
  6
Continuous
 62
     7
370
    25
100
AcDbLine
 10
350.4273330427
 20
167.8780213807
 30
0.0
 11
349.4006388887
 21
164.7902196683
 31
0.0
  0
LINE
  5
B99
330
1F
100
AcDbEntity
  8
0
  6
Continuous
 62
     7
370
    25
100
AcDbLine
 10
349.4006388887
 20
164.7902196683
 30
0.0
 11
348.4125458642
 21
164.7902126964
 31
0.0
  0
LINE
  5
B9A
330
1F
100
AcDbEntity
  8
0
  6
Continuous
 62
     7
370
    25
100
AcDbLine
 10
348.4125458642
 20
164.7902126964
 30
0.0
 11
347.0226396516
 21
164.7195099379
 31
0.0
  0
LINE
  5
B9B
330
1F
100
AcDbEntity
  8
0
  6
Continuous
 62
     7
370
    25
100
AcDbLine
 10
347.0226396516
 20
164.7195099379
 30
0.0
 11
345.6470795631
 21
164.508150995
 31
0.0
  0
LINE
  5
B9C
330
1F
100
AcDbEntity
  8
0
  6
Continuous
 62
     7
370
    25
100
AcDbLine
 10
345.6470795631
 20
164.508150995
 30
0.0
 11
344.3000626597
 21
164.1583172888
 31
0.0
  0
LINE
  5
B9D
330
1F
100
AcDbEntity
  8
0
  6
Continuous
 62
     7
370
    25
100
AcDbLine
 10
344.3000626597
 20
164.1583172888
 30
0.0
 11
342.9954914104
 21
163.6736194288
 31
0.0
  0
LINE
  5
B9E
330
1F
100
AcDbEntity
  8
0
  6
Continuous
 62
     7
370
    25
100
AcDbLine
 10
342.9954914104
 20
163.6736194288
 30
0.0
 11
341.7468302053
 21
163.0590599485
 31
0.0
  0
LINE
  5
B9F
330
1F
100
AcDbEntity
  8
0
  6
Continuous
 62
     7
370
    25
100
AcDbLine
 10
341.7468302053
 20
163.0590599485
 30
0.0
 11
340.5669663908
 21
162.3209816739
 31
0.0
  0
LINE
  5
BA0
330
1F
100
AcDbEntity
  8
0
  6
Continuous
 62
     7
370
    25
100
AcDbLine
 10
340.5669663908
 20
162.3209816739
 30
0.0
 11
339.4680772604
 21
161.4670022602
 31
0.0
  0
LINE
  5
BA1
330
1F
100
AcDbEntity
  8
0
  6
Continuous
 62
     7
370
    25
100
AcDbLine
 10
339.4680772604
 20
161.4670022602
 30
0.0
 11
338.4615043732
 21
160.5059355702
 31
0.0
  0
LINE
  5
BA2
330
1F
100
AcDbEntity
  8
0
  6
Continuous
 62
     7
370
    25
100
AcDbLine
 10
338.4615043732
 20
160.5059355702
 30
0.0
 11
337.5576364987
 21
159.4477007071
 31
0.0
  0
LINE
  5
BA3
330
1F
100
AcDbEntity
  8
0
  6
Continuous
 62
     7
370
    25
100
AcDbLine
 10
337.5576364987
 20
159.4477007071
 30
0.0
 11
336.7658023951
 21
158.3032196402
 31
0.0
  0
LINE
  5
BA4
330
1F
100
AcDbEntity
  8
0
  6
Continuous
 62
     7
370
    25
100
AcDbLine
 10
336.7658023951
 20
158.3032196402
 30
0.0
 11
336.0941745279
 21
157.08430448
 31
0.0
  0
LINE
  5
BA5
330
1F
100
AcDbEntity
  8
0
  6
Continuous
 62
     7
370
    25
100
AcDbLine
 10
336.0941745279
 20
157.08430448
 30
0.0
 11
335.5496847219
 21
155.8035355659
 31
0.0
  0
LINE
  5
BA6
330
1F
100
AcDbEntity
  8
0
  6
Continuous
 62
     7
370
    25
100
AcDbLine
 10
335.5496847219
 20
155.8035355659
 30
0.0
 11
335.5278938712
 21
155.7678005382
 31
0.0
  0
LINE
  5
BA7
330
1F
100
AcDbEntity
  8
0
  6
Continuous
 62
     7
370
    25
100
AcDbLine
 10
335.5278938712
 20
155.7678005382
 30
0.0
 11
329.508469515
 21
116.230934769
 31
0.0
  0
LINE
  5
BA8
330
1F
100
AcDbEntity
  8
0
  6
Continuous
 62
     7
370
    25
100
AcDbLine
 10
329.508469515
 20
116.230934769
 30
0.0
 11
309.9636903546
 21
104.6160626343
 31
0.0
  0
LINE
  5
BA9
330
1F
100
AcDbEntity
  8
0
  6
Continuous
 62
     7
370
    25
100
AcDbLine
 10
309.9636903546
 20
104.6160626343
 30
0.0
 11
309.6152893341
 21
104.3529403874
 31
0.0
  0
LINE
  5
BAA
330
1F
100
AcDbEntity
  8
0
  6
Continuous
 62
     7
370
    25
100
AcDbLine
 10
309.6152893341
 20
104.3529403874
 30
0.0
 11
309.2873573697
 21
104.0647092049
 31
0.0
  0
LINE
  5
BAB
330
1F
100
AcDbEntity
  8
0
  6
Continuous
 62
     7
370
    25
100
AcDbLine
 10
309.2873573697
 20
104.0647092049
 30
0.0
 11
308.981699893
 21
103.7529559453
 31
0.0
  0
LINE
  5
BAC
330
1F
100
AcDbEntity
  8
0
  6
Continuous
 62
     7
370
    25
100
AcDbLine
 10
308.981699893
 20
103.7529559453
 30
0.0
 11
308.6999997033
 21
103.4193969684
 31
0.0
  0
LINE
  5
BAD
330
1F
100
AcDbEntity
  8
0
  6
Continuous
 62
     7
370
    25
100
AcDbLine
 10
308.6999997033
 20
103.4193969684
 30
0.0
 11
308.4438077029
 21
103.0658686855
 31
0.0
  0
LINE
  5
BAE
330
1F
100
AcDbEntity
  8
0
  6
Continuous
 62
     7
370
    25
100
AcDbLine
 10
308.4438077029
 20
103.0658686855
 30
0.0
 11
308.2145343587
 21
102.6943174487
 31
0.0
  0
LINE
  5
BAF
330
1F
100
AcDbEntity
  8
0
  6
Continuous
 62
     7
370
    25
100
AcDbLine
 10
308.2145343587
 20
102.6943174487
 30
0.0
 11
308.0134419364
 21
102.306788836
 31
0.0
  0
LINE
  5
BB0
330
1F
100
AcDbEntity
  8
0
  6
Continuous
 62
     7
370
    25
100
AcDbLine
 10
308.0134419364
 20
102.306788836
 30
0.0
 11
307.841637552
 21
101.9054163888
 31
0.0
  0
LINE
  5
BB1
330
1F
100
AcDbEntity
  8
0
  6
Continuous
 62
     7
370
    25
100
AcDbLine
 10
307.841637552
 20
101.9054163888
 30
0.0
 11
307.7000670754
 21
101.4924098658
 31
0.0
  0
LINE
  5
BB2
330
1F
100
AcDbEntity
  8
0
  6
Continuous
 62
     7
370
    25
100
AcDbLine
 10
307.7000670754
 20
101.4924098658
 30
0.0
 11
307.5105747708
 21
100.640641366
 31
0.0
  0
LINE
  5
BB3
330
1F
100
AcDbEntity
  8
0
  6
Continuous
 62
     7
370
    25
100
AcDbLine
 10
307.5105747708
 20
100.640641366
 30
0.0
 11
305.3904130907
 21
86.0897250189
 31
0.0
  0
LINE
  5
BB4
330
1F
100
AcDbEntity
  8
0
  6
Continuous
 62
     7
370
    25
100
AcDbLine
 10
305.3904130907
 20
86.0897250189
 30
0.0
 11
305.3905426013
 21
85.944027407
 31
0.0
  0
LINE
  5
BB5
330
1F
100
AcDbEntity
  8
0
  6
Continuous
 62
     7
370
    25
100
AcDbLine
 10
305.3905426013
 20
85.944027407
 30
0.0
 11
305.4486875158
 21
85.1814474313
 31
0.0
  0
LINE
  5
BB6
330
1F
100
AcDbEntity
  8
0
  6
Continuous
 62
     7
370
    25
100
AcDbLine
 10
305.4486875158
 20
85.1814474313
 30
0.0
 11
305.5454166855
 21
84.4227956547
 31
0.0
  0
LINE
  5
BB7
330
1F
100
AcDbEntity
  8
0
  6
Continuous
 62
     7
370
    25
100
AcDbLine
 10
305.5454166855
 20
84.4227956547
 30
0.0
 11
305.6804813578
 21
83.6700230564
 31
0.0
  0
LINE
  5
BB8
330
1F
100
AcDbEntity
  8
0
  6
Continuous
 62
     7
370
    25
100
AcDbLine
 10
305.6804813578
 20
83.6700230564
 30
0.0
 11
305.853534195
 21
82.9250654966
 31
0.0
  0
LINE
  5
BB9
330
1F
100
AcDbEntity
  8
0
  6
Continuous
 62
     7
370
    25
100
AcDbLine
 10
305.853534195
 20
82.9250654966
 30
0.0
 11
306.0641301674
 21
82.1898387378
 31
0.0
  0
LINE
  5
BBA
330
1F
100
AcDbEntity
  8
0
  6
Continuous
 62
     7
370
    25
100
AcDbLine
 10
306.0641301674
 20
82.1898387378
 30
0.0
 11
306.3117276981
 21
81.4662335186
 31
0.0
  0
LINE
  5
BBB
330
1F
100
AcDbEntity
  8
0
  6
Continuous
 62
     7
370
    25
100
AcDbLine
 10
306.3117276981
 20
81.4662335186
 30
0.0
 11
306.5956900553
 21
80.7561106911
 31
0.0
  0
LINE
  5
BBC
330
1F
100
AcDbEntity
  8
0
  6
Continuous
 62
     7
370
    25
100
AcDbLine
 10
306.5956900553
 20
80.7561106911
 30
0.0
 11
306.9152869901
 21
80.0612964356
 31
0.0
  0
LINE
  5
BBD
330
1F
100
AcDbEntity
  8
0
  6
Continuous
 62
     7
370
    25
100
AcDbLine
 10
306.9152869901
 20
80.0612964356
 30
0.0
 11
307.2696966143
 21
79.3835775641
 31
0.0
  0
LINE
  5
BBE
330
1F
100
AcDbEntity
  8
0
  6
Continuous
 62
     7
370
    25
100
AcDbLine
 10
307.2696966143
 20
79.3835775641
 30
0.0
 11
308.0792210929
 21
78.086348924
 31
0.0
  0
LINE
  5
BBF
330
1F
100
AcDbEntity
  8
0
  6
Continuous
 62
     7
370
    25
100
AcDbLine
 10
308.0792210929
 20
78.086348924
 30
0.0
 11
317.3715580454
 21
64.7520807869
 31
0.0
  0
LINE
  5
BC0
330
1F
100
AcDbEntity
  8
0
  6
Continuous
 62
     7
370
    25
100
AcDbLine
 10
317.3715580454
 20
64.7520807869
 30
0.0
 11
317.3800598909
 21
39.2047678961
 31
0.0
  0
LINE
  5
BC1
330
1F
100
AcDbEntity
  8
0
  6
Continuous
 62
     7
370
    25
100
AcDbLine
 10
317.3800598909
 20
39.2047678961
 30
0.0
 11
307.666280635
 21
25.2658158141
 31
0.0
  0
LINE
  5
BC2
330
1F
100
AcDbEntity
  8
0
  6
Continuous
 62
     7
370
    25
100
AcDbLine
 10
307.666280635
 20
25.2658158141
 30
0.0
 11
307.3123847309
 21
24.7855893639
 31
0.0
  0
LINE
  5
BC3
330
1F
100
AcDbEntity
  8
0
  6
Continuous
 62
     7
370
    25
100
AcDbLine
 10
307.3123847309
 20
24.7855893639
 30
0.0
 11
306.6867447789
 21
23.7702429987
 31
0.0
  0
LINE
  5
BC4
330
1F
100
AcDbEntity
  8
0
  6
Continuous
 62
     7
370
    25
100
AcDbLine
 10
306.6867447789
 20
23.7702429987
 30
0.0
 11
306.4169090287
 21
23.2382200458
 31
0.0
  0
LINE
  5
BC5
330
1F
100
AcDbEntity
  8
0
  6
Continuous
 62
     7
370
    25
100
AcDbLine
 10
306.4169090287
 20
23.2382200458
 30
0.0
 11
306.1768562604
 21
22.6921116107
 31
0.0
  0
LINE
  5
BC6
330
1F
100
AcDbEntity
  8
0
  6
Continuous
 62
     7
370
    25
100
AcDbLine
 10
306.1768562604
 20
22.6921116107
 30
0.0
 11
305.9673186717
 21
22.1335834079
 31
0.0
  0
LINE
  5
BC7
330
1F
100
AcDbEntity
  8
0
  6
Continuous
 62
     7
370
    25
100
AcDbLine
 10
305.9673186717
 20
22.1335834079
 30
0.0
 11
305.7889353844
 21
21.564339034
 31
0.0
  0
LINE
  5
BC8
330
1F
100
AcDbEntity
  8
0
  6
Continuous
 62
     7
370
    25
100
AcDbLine
 10
305.7889353844
 20
21.564339034
 30
0.0
 11
305.6422504949
 21
20.9861147716
 31
0.0
  0
LINE
  5
BC9
330
1F
100
AcDbEntity
  8
0
  6
Continuous
 62
     7
370
    25
100
AcDbLine
 10
305.6422504949
 20
20.9861147716
 30
0.0
 11
305.5277114146
 21
20.4006742934
 31
0.0
  0
LINE
  5
BCA
330
1F
100
AcDbEntity
  8
0
  6
Continuous
 62
     7
370
    25
100
AcDbLine
 10
305.5277114146
 20
20.4006742934
 30
0.0
 11
305.4456675053
 21
19.8098032826
 31
0.0
  0
LINE
  5
BCB
330
1F
100
AcDbEntity
  8
0
  6
Continuous
 62
     7
370
    25
100
AcDbLine
 10
305.4456675053
 20
19.8098032826
 30
0.0
 11
305.3963690134
 21
19.2153039865
 31
0.0
  0
LINE
  5
BCC
330
1F
100
AcDbEntity
  8
0
  6
Continuous
 62
     7
370
    25
100
AcDbLine
 10
305.3963690134
 20
19.2153039865
 30
0.0
 11
305.3817914534
 21
1.4431210901
 31
0.0
  0
LINE
  5
BCD
330
1F
100
AcDbEntity
  8
0
  6
Continuous
 62
     7
370
    25
100
AcDbLine
 10
305.3817914534
 20
1.4431210901
 30
0.0
 11
305.4105636269
 21
1.0041900069
 31
0.0
  0
LINE
  5
BCE
330
1F
100
AcDbEntity
  8
0
  6
Continuous
 62
     7
370
    25
100
AcDbLine
 10
305.4105636269
 20
1.0041900069
 30
0.0
 11
305.4963816535
 21
0.5727695621
 31
0.0
  0
LINE
  5
BCF
330
1F
100
AcDbEntity
  8
0
  6
Continuous
 62
     7
370
    25
100
AcDbLine
 10
305.4963816535
 20
0.5727695621
 30
0.0
 11
305.6377771628
 21
0.1562414793
 31
0.0
  0
LINE
  5
BD0
330
1F
100
AcDbEntity
  8
0
  6
Continuous
 62
     7
370
    25
100
AcDbLine
 10
305.6377771628
 20
0.1562414793
 30
0.0
 11
305.8323308385
 21
-0.2382673306
 31
0.0
  0
LINE
  5
BD1
330
1F
100
AcDbEntity
  8
0
  6
Continuous
 62
     7
370
    25
100
AcDbLine
 10
305.8323308385
 20
-0.2382673306
 30
0.0
 11
306.0767138133
 21
-0.6040067125
 31
0.0
  0
LINE
  5
BD2
330
1F
100
AcDbEntity
  8
0
  6
Continuous
 62
     7
370
    25
100
AcDbLine
 10
306.0767138133
 20
-0.6040067125
 30
0.0
 11
306.3667446268
 21
-0.9347187641
 31
0.0
  0
LINE
  5
BD3
330
1F
100
AcDbEntity
  8
0
  6
Continuous
 62
     7
370
    25
100
AcDbLine
 10
306.3667446268
 20
-0.9347187641
 30
0.0
 11
306.6974607712
 21
-1.2247449106
 31
0.0
  0
LINE
  5
BD4
330
1F
100
AcDbEntity
  8
0
  6
Continuous
 62
     7
370
    25
100
AcDbLine
 10
306.6974607712
 20
-1.2247449106
 30
0.0
 11
307.0632036017
 21
-1.4691227241
 31
0.0
  0
LINE
  5
BD5
330
1F
100
AcDbEntity
  8
0
  6
Continuous
 62
     7
370
    25
100
AcDbLine
 10
307.0632036017
 20
-1.4691227241
 30
0.0
 11
307.4577151571
 21
-1.6636708325
 31
0.0
  0
LINE
  5
BD6
330
1F
100
AcDbEntity
  8
0
  6
Continuous
 62
     7
370
    25
100
AcDbLine
 10
307.4577151571
 20
-1.6636708325
 30
0.0
 11
307.8742452353
 21
-1.8050604638
 31
0.0
  0
LINE
  5
BD7
330
1F
100
AcDbEntity
  8
0
  6
Continuous
 62
     7
370
    25
100
AcDbLine
 10
307.8742452353
 20
-1.8050604638
 30
0.0
 11
308.305666891
 21
-1.8908724022
 31
0.0
  0
LINE
  5
BD8
330
1F
100
AcDbEntity
  8
0
  6
Continuous
 62
     7
370
    25
100
AcDbLine
 10
308.305666891
 20
-1.8908724022
 30
0.0
 11
308.7445983803
 21
-1.9196383816
 31
0.0
  0
LINE
  5
BD9
330
1F
100
AcDbEntity
  8
0
  6
Continuous
 62
     7
370
    25
100
AcDbLine
 10
308.7445983803
 20
-1.9196383816
 30
0.0
 11
442.0590319779
 21
-1.9186977243
 31
0.0
  0
LINE
  5
BDA
330
1F
100
AcDbEntity
  8
0
  6
Continuous
 62
     7
370
    25
100
AcDbLine
 10
442.0590319779
 20
-1.9186977243
 30
0.0
 11
442.4979630612
 21
-1.8899255508
 31
0.0
  0
LINE
  5
BDB
330
1F
100
AcDbEntity
  8
0
  6
Continuous
 62
     7
370
    25
100
AcDbLine
 10
442.4979630612
 20
-1.8899255508
 30
0.0
 11
442.9293835059
 21
-1.8041075243
 31
0.0
  0
LINE
  5
BDC
330
1F
100
AcDbEntity
  8
0
  6
Continuous
 62
     7
370
    25
100
AcDbLine
 10
442.9293835059
 20
-1.8041075243
 30
0.0
 11
443.3459115887
 21
-1.662712015
 31
0.0
  0
LINE
  5
BDD
330
1F
100
AcDbEntity
  8
0
  6
Continuous
 62
     7
370
    25
100
AcDbLine
 10
443.3459115887
 20
-1.662712015
 30
0.0
 11
443.7404203986
 21
-1.4681583392
 31
0.0
  0
LINE
  5
BDE
330
1F
100
AcDbEntity
  8
0
  6
Continuous
 62
     7
370
    25
100
AcDbLine
 10
443.7404203986
 20
-1.4681583392
 30
0.0
 11
444.1061597805
 21
-1.2237753644
 31
0.0
  0
LINE
  5
BDF
330
1F
100
AcDbEntity
  8
0
  6
Continuous
 62
     7
370
    25
100
AcDbLine
 10
444.1061597805
 20
-1.2237753644
 30
0.0
 11
444.4368718321
 21
-0.933744551
 31
0.0
  0
LINE
  5
BE0
330
1F
100
AcDbEntity
  8
0
  6
Continuous
 62
     7
370
    25
100
AcDbLine
 10
444.4368718321
 20
-0.933744551
 30
0.0
 11
444.7268979786
 21
-0.6030284065
 31
0.0
  0
LINE
  5
BE1
330
1F
100
AcDbEntity
  8
0
  6
Continuous
 62
     7
370
    25
100
AcDbLine
 10
444.7268979786
 20
-0.6030284065
 30
0.0
 11
444.9712757921
 21
-0.237285576
 31
0.0
  0
LINE
  5
BE2
330
1F
100
AcDbEntity
  8
0
  6
Continuous
 62
     7
370
    25
100
AcDbLine
 10
444.9712757921
 20
-0.237285576
 30
0.0
 11
445.1658239006
 21
0.1572259794
 31
0.0
  0
LINE
  5
BE3
330
1F
100
AcDbEntity
  8
0
  6
Continuous
 62
     7
370
    25
100
AcDbLine
 10
445.1658239006
 20
0.1572259794
 30
0.0
 11
445.3072135319
 21
0.5737560575
 31
0.0
  0
LINE
  5
BE4
330
1F
100
AcDbEntity
  8
0
  6
Continuous
 62
     7
370
    25
100
AcDbLine
 10
445.3072135319
 20
0.5737560575
 30
0.0
 11
445.3930254702
 21
1.0051777133
 31
0.0
  0
LINE
  5
BE5
330
1F
100
AcDbEntity
  8
0
  6
Continuous
 62
     7
370
    25
100
AcDbLine
 10
445.3930254702
 20
1.0051777133
 30
0.0
 11
445.4217914496
 21
1.4441092026
 31
0.0
  0
LINE
  5
BE6
330
1F
100
AcDbEntity
  8
0
  6
Continuous
 62
     7
370
    25
100
AcDbLine
 10
445.4217914496
 20
1.4441092026
 30
0.0
 11
445.4223224338
 21
19.2162919998
 31
0.0
  0
LINE
  5
BE7
330
1F
100
AcDbEntity
  8
0
  6
Continuous
 62
     7
370
    25
100
AcDbLine
 10
445.4223224338
 20
19.2162919998
 30
0.0
 11
445.3730155524
 21
19.8107906002
 31
0.0
  0
LINE
  5
BE8
330
1F
100
AcDbEntity
  8
0
  6
Continuous
 62
     7
370
    25
100
AcDbLine
 10
445.3730155524
 20
19.8107906002
 30
0.0
 11
445.2909633048
 21
20.4016604531
 31
0.0
  0
LINE
  5
BE9
330
1F
100
AcDbEntity
  8
0
  6
Continuous
 62
     7
370
    25
100
AcDbLine
 10
445.2909633048
 20
20.4016604531
 30
0.0
 11
445.1764159628
 21
20.9870993149
 31
0.0
  0
LINE
  5
BEA
330
1F
100
AcDbEntity
  8
0
  6
Continuous
 62
     7
370
    25
100
AcDbLine
 10
445.1764159628
 20
20.9870993149
 30
0.0
 11
445.0297229135
 21
21.5653215072
 31
0.0
  0
LINE
  5
BEB
330
1F
100
AcDbEntity
  8
0
  6
Continuous
 62
     7
370
    25
100
AcDbLine
 10
445.0297229135
 20
21.5653215072
 30
0.0
 11
444.8513315932
 21
22.1345633638
 31
0.0
  0
LINE
  5
BEC
330
1F
100
AcDbEntity
  8
0
  6
Continuous
 62
     7
370
    25
100
AcDbLine
 10
444.8513315932
 20
22.1345633638
 30
0.0
 11
444.6417861226
 21
22.6930886096
 31
0.0
  0
LINE
  5
BED
330
1F
100
AcDbEntity
  8
0
  6
Continuous
 62
     7
370
    25
100
AcDbLine
 10
444.6417861226
 20
22.6930886096
 30
0.0
 11
444.4017256478
 21
23.239193657
 31
0.0
  0
LINE
  5
BEE
330
1F
100
AcDbEntity
  8
0
  6
Continuous
 62
     7
370
    25
100
AcDbLine
 10
444.4017256478
 20
23.239193657
 30
0.0
 11
444.1318823898
 21
23.7712128019
 31
0.0
  0
LINE
  5
BEF
330
1F
100
AcDbEntity
  8
0
  6
Continuous
 62
     7
370
    25
100
AcDbLine
 10
444.1318823898
 20
23.7712128019
 30
0.0
 11
443.5062281094
 21
24.7865503381
 31
0.0
  0
LINE
  5
BF0
330
1F
100
AcDbEntity
  8
0
  6
Continuous
 62
     7
370
    25
100
AcDbLine
 10
443.5062281094
 20
24.7865503381
 30
0.0
 11
443.1523254285
 21
25.2667717941
 31
0.0
  0
LINE
  5
BF1
330
1F
100
AcDbEntity
  8
0
  6
Continuous
 62
     7
370
    25
100
AcDbLine
 10
443.1523254285
 20
25.2667717941
 30
0.0
 11
433.438349469
 21
39.2055867953
 31
0.0
  0
LINE
  5
BF2
330
1F
100
AcDbEntity
  8
0
  6
Continuous
 62
     7
370
    25
100
AcDbLine
 10
433.438349469
 20
39.2055867953
 30
0.0
 11
433.4306989563
 21
64.7528996921
 31
0.0
  0
LINE
  5
BF3
330
1F
100
AcDbEntity
  8
0
  6
Continuous
 62
     7
370
    25
100
AcDbLine
 10
433.4306989563
 20
64.7528996921
 30
0.0
 11
442.7228477365
 21
78.08729896
 31
0.0
  0
LINE
  5
BF4
330
1F
100
AcDbEntity
  8
0
  6
Continuous
 62
     7
370
    25
100
AcDbLine
 10
442.7228477365
 20
78.08729896
 30
0.0
 11
443.5323539088
 21
79.3845390238
 31
0.0
  0
LINE
  5
BF5
330
1F
100
AcDbEntity
  8
0
  6
Continuous
 62
     7
370
    25
100
AcDbLine
 10
443.5323539088
 20
79.3845390238
 30
0.0
 11
443.8867539691
 21
80.0622628966
 31
0.0
  0
LINE
  5
BF6
330
1F
100
AcDbEntity
  8
0
  6
Continuous
 62
     7
370
    25
100
AcDbLine
 10
443.8867539691
 20
80.0622628966
 30
0.0
 11
444.2063410987
 21
80.7570816622
 31
0.0
  0
LINE
  5
BF7
330
1F
100
AcDbEntity
  8
0
  6
Continuous
 62
     7
370
    25
100
AcDbLine
 10
444.2063410987
 20
80.7570816622
 30
0.0
 11
444.4902934348
 21
81.4672084968
 31
0.0
  0
LINE
  5
BF8
330
1F
100
AcDbEntity
  8
0
  6
Continuous
 62
     7
370
    25
100
AcDbLine
 10
444.4902934348
 20
81.4672084968
 30
0.0
 11
444.737880754
 21
82.19081721
 31
0.0
  0
LINE
  5
BF9
330
1F
100
AcDbEntity
  8
0
  6
Continuous
 62
     7
370
    25
100
AcDbLine
 10
444.737880754
 20
82.19081721
 30
0.0
 11
444.948466351
 21
82.9260469406
 31
0.0
  0
LINE
  5
BFA
330
1F
100
AcDbEntity
  8
0
  6
Continuous
 62
     7
370
    25
100
AcDbLine
 10
444.948466351
 20
82.9260469406
 30
0.0
 11
445.1215086754
 21
83.6710069425
 31
0.0
  0
LINE
  5
BFB
330
1F
100
AcDbEntity
  8
0
  6
Continuous
 62
     7
370
    25
100
AcDbLine
 10
445.1215086754
 20
83.6710069425
 30
0.0
 11
445.2565627246
 21
84.4237814468
 31
0.0
  0
LINE
  5
BFC
330
1F
100
AcDbEntity
  8
0
  6
Continuous
 62
     7
370
    25
100
AcDbLine
 10
445.2565627246
 20
84.4237814468
 30
0.0
 11
445.3532811883
 21
85.1824345883
 31
0.0
  0
LINE
  5
BFD
330
1F
100
AcDbEntity
  8
0
  6
Continuous
 62
     7
370
    25
100
AcDbLine
 10
445.3532811883
 20
85.1824345883
 30
0.0
 11
445.4114153414
 21
85.9450153845
 31
0.0
  0
LINE
  5
BFE
330
1F
100
AcDbEntity
  8
0
  6
Continuous
 62
     7
370
    25
100
AcDbLine
 10
445.4114153414
 20
85.9450153845
 30
0.0
 11
443.2698171681
 21
100.6415992737
 31
0.0
  0
LINE
  5
BFF
330
1F
100
AcDbEntity
  8
0
  6
Continuous
 62
     7
370
    25
100
AcDbLine
 10
443.2698171681
 20
100.6415992737
 30
0.0
 11
443.0803128435
 21
101.4933650993
 31
0.0
  0
LINE
  5
C00
330
1F
100
AcDbEntity
  8
0
  6
Continuous
 62
     7
370
    25
100
AcDbLine
 10
443.0803128435
 20
101.4933650993
 30
0.0
 11
442.9387365387
 21
101.9063696245
 31
0.0
  0
LINE
  5
C01
330
1F
100
AcDbEntity
  8
0
  6
Continuous
 62
     7
370
    25
100
AcDbLine
 10
399.4317477967
 20
171.6587752586
 30
0.0
 11
399.0754064497
 21
172.381351176
 31
0.0
  0
LINE
  5
C02
330
1F
100
AcDbEntity
  8
0
  6
Continuous
 62
     7
370
    25
100
AcDbLine
 10
442.7669264901
 20
102.3077396472
 30
0.0
 11
442.5658285991
 21
102.695265422
 31
0.0
  0
LINE
  5
C03
330
1F
100
AcDbEntity
  8
0
  6
Continuous
 62
     7
370
    25
100
AcDbLine
 10
442.5658285991
 20
102.695265422
 30
0.0
 11
442.3365500116
 21
103.0668134233
 31
0.0
  0
LINE
  5
C04
330
1F
100
AcDbEntity
  8
0
  6
Continuous
 62
     7
370
    25
100
AcDbLine
 10
442.3365500116
 20
103.0668134233
 30
0.0
 11
442.0803530223
 21
103.4203380908
 31
0.0
  0
LINE
  5
C05
330
1F
100
AcDbEntity
  8
0
  6
Continuous
 62
     7
370
    25
100
AcDbLine
 10
442.0803530223
 20
103.4203380908
 30
0.0
 11
441.7986481256
 21
103.7538930924
 31
0.0
  0
LINE
  5
C06
330
1F
100
AcDbEntity
  8
0
  6
Continuous
 62
     7
370
    25
100
AcDbLine
 10
441.7986481256
 20
103.7538930924
 30
0.0
 11
441.4929862495
 21
104.0656420385
 31
0.0
  0
LINE
  5
C07
330
1F
100
AcDbEntity
  8
0
  6
Continuous
 62
     7
370
    25
100
AcDbLine
 10
441.4929862495
 20
104.0656420385
 30
0.0
 11
441.1650502176
 21
104.3538685933
 31
0.0
  0
LINE
  5
C08
330
1F
100
AcDbEntity
  8
0
  6
Continuous
 62
     7
370
    25
100
AcDbLine
 10
441.1650502176
 20
104.3538685933
 30
0.0
 11
440.8166454839
 21
104.6169859236
 31
0.0
  0
LINE
  5
C09
330
1F
100
AcDbEntity
  8
0
  6
Continuous
 62
     7
370
    25
100
AcDbLine
 10
440.8166454839
 20
104.6169859236
 30
0.0
 11
421.2718809819
 21
116.2318831432
 31
0.0
  0
LINE
  5
C0A
330
1F
100
AcDbEntity
  8
0
  6
Continuous
 62
     7
370
    25
100
AcDbLine
 10
421.2718809819
 20
116.2318831432
 30
0.0
 11
415.2517198716
 21
155.8040979379
 31
0.0
  0
LINE
  5
C0B
330
1F
100
AcDbEntity
  8
0
  6
Continuous
 62
     7
370
    25
100
AcDbLine
 10
415.2517198716
 20
155.8040979379
 30
0.0
 11
414.7072119917
 21
157.0848591681
 31
0.0
  0
LINE
  5
C0C
330
1F
100
AcDbEntity
  8
0
  6
Continuous
 62
     7
370
    25
100
AcDbLine
 10
414.7072119917
 20
157.0848591681
 30
0.0
 11
414.0355669233
 21
158.3037648503
 31
0.0
  0
LINE
  5
C0D
330
1F
100
AcDbEntity
  8
0
  6
Continuous
 62
     7
370
    25
100
AcDbLine
 10
414.0355669233
 20
158.3037648503
 30
0.0
 11
413.2437166691
 21
159.4482347428
 31
0.0
  0
LINE
  5
C0E
330
1F
100
AcDbEntity
  8
0
  6
Continuous
 62
     7
370
    25
100
AcDbLine
 10
413.2437166691
 20
159.4482347428
 30
0.0
 11
412.339833861
 21
160.5064568505
 31
0.0
  0
LINE
  5
C0F
330
1F
100
AcDbEntity
  8
0
  6
Continuous
 62
     7
370
    25
100
AcDbLine
 10
412.339833861
 20
160.5064568505
 30
0.0
 11
411.3332474114
 21
161.4675093358
 31
0.0
  0
LINE
  5
C10
330
1F
100
AcDbEntity
  8
0
  6
Continuous
 62
     7
370
    25
100
AcDbLine
 10
411.3332474114
 20
161.4675093358
 30
0.0
 11
410.2343462299
 21
162.3214732421
 31
0.0
  0
LINE
  5
C11
330
1F
100
AcDbEntity
  8
0
  6
Continuous
 62
     7
370
    25
100
AcDbLine
 10
410.2343462299
 20
162.3214732421
 30
0.0
 11
409.0544719999
 21
163.0595348665
 31
0.0
  0
LINE
  5
C12
330
1F
100
AcDbEntity
  8
0
  6
Continuous
 62
     7
370
    25
100
AcDbLine
 10
409.0544719999
 20
163.0595348665
 30
0.0
 11
407.8058021224
 21
163.6740767258
 31
0.0
  0
LINE
  5
C13
330
1F
100
AcDbEntity
  8
0
  6
Continuous
 62
     7
370
    25
100
AcDbLine
 10
407.8058021224
 20
163.6740767258
 30
0.0
 11
406.5012240332
 21
164.1587561758
 31
0.0
  0
LINE
  5
C14
330
1F
100
AcDbEntity
  8
0
  6
Continuous
 62
     7
370
    25
100
AcDbLine
 10
406.5012240332
 20
164.1587561758
 30
0.0
 11
405.1542021932
 21
164.5085708731
 31
0.0
  0
LINE
  5
C15
330
1F
100
AcDbEntity
  8
0
  6
Continuous
 62
     7
370
    25
100
AcDbLine
 10
405.1542021932
 20
164.5085708731
 30
0.0
 11
403.7786391221
 21
164.7199104043
 31
0.0
  0
LINE
  5
C16
330
1F
100
AcDbEntity
  8
0
  6
Continuous
 62
     7
370
    25
100
AcDbLine
 10
403.7786391221
 20
164.7199104043
 30
0.0
 11
402.3887319118
 21
164.7905935485
 31
0.0
  0
LINE
  5
C17
330
1F
100
AcDbEntity
  8
0
  6
Continuous
 62
     7
370
    25
100
AcDbLine
 10
402.3887319118
 20
164.7905935485
 30
0.0
 11
401.4006388874
 21
164.7905865766
 31
0.0
  0
LINE
  5
C18
330
1F
100
AcDbEntity
  8
0
  6
Continuous
 62
     7
370
    25
100
AcDbLine
 10
401.4006388874
 20
164.7905865766
 30
0.0
 11
400.3739011588
 21
167.8783738002
 31
0.0
  0
LINE
  5
C19
330
1F
100
AcDbEntity
  8
0
  6
Continuous
 62
     7
370
    25
100
AcDbLine
 10
400.3739011588
 20
167.8783738002
 30
0.0
 11
400.2172452529
 21
167.9055515313
 31
0.0
  0
LINE
  5
C1A
330
1F
100
AcDbEntity
  8
0
  6
Continuous
 62
     7
370
    25
100
AcDbLine
 10
400.2172452529
 20
167.9055515313
 30
0.0
 11
400.0688816174
 21
167.962717374
 31
0.0
  0
LINE
  5
C1B
330
1F
100
AcDbEntity
  8
0
  6
Continuous
 62
     7
370
    25
100
AcDbLine
 10
400.0688816174
 20
167.962717374
 30
0.0
 11
399.934491617
 21
168.0476822476
 31
0.0
  0
LINE
  5
C1C
330
1F
100
AcDbEntity
  8
0
  6
Continuous
 62
     7
370
    25
100
AcDbLine
 10
399.934491617
 20
168.0476822476
 30
0.0
 11
399.8192215172
 21
168.1571925485
 31
0.0
  0
LINE
  5
C1D
330
1F
100
AcDbEntity
  8
0
  6
Continuous
 62
     7
370
    25
100
AcDbLine
 10
399.8192215172
 20
168.1571925485
 30
0.0
 11
399.7274854148
 21
168.2870547425
 31
0.0
  0
LINE
  5
C1E
330
1F
100
AcDbEntity
  8
0
  6
Continuous
 62
     7
370
    25
100
AcDbLine
 10
399.7274854148
 20
168.2870547425
 30
0.0
 11
399.6627962075
 21
168.4322959502
 31
0.0
  0
LINE
  5
C1F
330
1F
100
AcDbEntity
  8
0
  6
Continuous
 62
     7
370
    25
100
AcDbLine
 10
442.9387365387
 20
101.9063696245
 30
0.0
 11
442.7669264901
 21
102.3077396472
 31
0.0
  0
LINE
  5
C20
330
1F
100
AcDbEntity
  8
0
  6
Continuous
 62
     7
370
    25
100
AcDbLine
 10
516.6414961658
 20
10.3388695211
 30
0.0
 11
524.5704283539
 21
10.3388695211
 31
0.0
  0
LINE
  5
C21
330
1F
100
AcDbEntity
  8
0
  6
Continuous
 62
     7
370
    25
100
AcDbLine
 10
493.7277966617
 20
10.3325682554
 30
0.0
 11
516.6414961658
 21
10.3388695211
 31
0.0
  0
LINE
  5
C22
330
1F
100
AcDbEntity
  8
0
  6
Continuous
 62
     7
370
    25
100
AcDbLine
 10
483.1092100356
 20
1.7058522899
 30
0.0
 11
490.1743518634
 21
8.8487106778
 31
0.0
  0
LINE
  5
C23
330
1F
100
AcDbEntity
  8
0
  6
Continuous
 62
     7
370
    25
100
AcDbLine
 10
461.6414971111
 20
0.2219945232
 30
0.0
 11
479.5543902378
 21
0.2219945232
 31
0.0
  0
LINE
  5
C24
330
1F
100
AcDbEntity
  8
0
  6
Continuous
 62
     7
370
    25
100
AcDbLine
 10
456.6414971111
 20
54.2219945232
 30
0.0
 11
456.6414971111
 21
5.2219945232
 31
0.0
  0
LINE
  5
C25
330
1F
100
AcDbEntity
  8
0
  6
Continuous
 62
     7
370
    25
100
AcDbLine
 10
463.7121608177
 20
62.4719945232
 30
0.0
 11
456.6414971111
 21
54.2219945232
 31
0.0
  0
LINE
  5
C26
330
1F
100
AcDbEntity
  8
0
  6
Continuous
 62
     7
370
    25
100
AcDbLine
 10
463.7121608177
 20
62.4719945232
 30
0.0
 11
463.7121608177
 21
71.9719945232
 31
0.0
  0
LINE
  5
C27
330
1F
100
AcDbEntity
  8
0
  6
Continuous
 62
     7
370
    25
100
AcDbLine
 10
456.6414971111
 20
80.2219945232
 30
0.0
 11
463.7121608177
 21
71.9719945232
 31
0.0
  0
LINE
  5
C28
330
1F
100
AcDbEntity
  8
0
  6
Continuous
 62
     7
370
    25
100
AcDbLine
 10
456.6414971111
 20
80.2219945232
 30
0.0
 11
456.6414971111
 21
129.2219945232
 31
0.0
  0
LINE
  5
C29
330
1F
100
AcDbEntity
  8
0
  6
Continuous
 62
     7
370
    25
100
AcDbLine
 10
461.6414971111
 20
134.2219945232
 30
0.0
 11
479.5533924365
 21
134.2219945232
 31
0.0
  0
LINE
  5
C2A
330
1F
100
AcDbEntity
  8
0
  6
Continuous
 62
     7
370
    25
100
AcDbLine
 10
483.1094070694
 20
132.7369283676
 30
0.0
 11
490.1735871528
 21
125.590185681
 31
0.0
  0
LINE
  5
C2B
330
1F
100
AcDbEntity
  8
0
  6
Continuous
 62
     7
370
    25
100
AcDbLine
 10
493.7296017857
 20
124.1051195254
 30
0.0
 11
524.5704292992
 21
124.1051195254
 31
0.0
  0
LINE
  5
C2C
330
1F
100
AcDbEntity
  8
0
  6
Continuous
 62
     7
370
    25
100
AcDbLine
 10
535.177031017
 20
132.6406534313
 30
0.0
 11
528.1059632052
 21
125.5695856194
 31
0.0
  0
LINE
  5
C2D
330
1F
100
AcDbEntity
  8
0
  6
Continuous
 62
     7
370
    25
100
AcDbLine
 10
538.712564923
 20
134.1051195254
 30
0.0
 11
550.6414971111
 21
134.1051195254
 31
0.0
  0
LINE
  5
C2E
330
1F
100
AcDbEntity
  8
0
  6
Continuous
 62
     7
370
    25
100
AcDbLine
 10
555.6414971111
 20
129.1051195254
 30
0.0
 11
555.6414971111
 21
82.18051739
 31
0.0
  0
LINE
  5
C2F
330
1F
100
AcDbEntity
  8
0
  6
Continuous
 62
     7
370
    25
100
AcDbLine
 10
551.2841875342
 20
77.2219945232
 30
0.0
 11
551.2841875342
 21
57.2219945232
 31
0.0
  0
LINE
  5
C30
330
1F
100
AcDbEntity
  8
0
  6
Continuous
 62
     7
370
    25
100
AcDbLine
 10
555.6414961658
 20
5.3388695211
 30
0.0
 11
555.6414961658
 21
52.263471779
 31
0.0
  0
LINE
  5
C31
330
1F
100
AcDbEntity
  8
0
  6
Continuous
 62
     7
370
    25
100
AcDbLine
 10
538.7125639777
 20
0.3388695211
 30
0.0
 11
550.6414961658
 21
0.3388695211
 31
0.0
  0
LINE
  5
C32
330
1F
100
AcDbEntity
  8
0
  6
Continuous
 62
     7
370
    25
100
AcDbLine
 10
535.1770300717
 20
1.8033356151
 30
0.0
 11
528.1059622599
 21
8.874403427
 31
0.0
  0
ARC
  5
C33
330
1F
100
AcDbEntity
  8
0
  6
Continuous
 62
     7
370
    25
100
AcDbCircle
 10
524.5704283539
 20
5.3388695211
 30
0.0
 40
4.999999999999821
100
AcDbArc
 50
45.0
 51
90.0
  0
ARC
  5
C34
330
1F
100
AcDbEntity
  8
0
  6
Continuous
 62
     7
370
    25
100
AcDbCircle
 10
493.7291716613
 20
5.3325684445
 30
0.0
 40
4.999999999999789
100
AcDbArc
 50
90.0157563346
 51
135.3133999448
  0
ARC
  5
C35
330
1F
100
AcDbEntity
  8
0
  6
Continuous
 62
     7
370
    25
100
AcDbCircle
 10
479.5543902378
 20
5.2219945232
 30
0.0
 40
5.000000000000236
100
AcDbArc
 50
270.0
 51
315.3133999448
  0
ARC
  5
C36
330
1F
100
AcDbEntity
  8
0
  6
Continuous
 62
     7
370
    25
100
AcDbCircle
 10
461.6414971111
 20
5.2219945232
 30
0.0
 40
5.0
100
AcDbArc
 50
180.0
 51
270.0
  0
ARC
  5
C37
330
1F
100
AcDbEntity
  8
0
  6
Continuous
 62
     7
370
    25
100
AcDbCircle
 10
461.6414971111
 20
129.2219945232
 30
0.0
 40
5.000000000000057
100
AcDbArc
 50
90.0
 51
180.0
  0
ARC
  5
C38
330
1F
100
AcDbEntity
  8
0
  6
Continuous
 62
     7
370
    25
100
AcDbCircle
 10
479.5533924365
 20
129.2219945232
 30
0.0
 40
5.000000000000597
100
AcDbArc
 50
44.6671267896
 51
90.0
  0
ARC
  5
C39
330
1F
100
AcDbEntity
  8
0
  6
Continuous
 62
     7
370
    25
100
AcDbCircle
 10
493.7296017857
 20
129.1051195254
 30
0.0
 40
5.000000000000084
100
AcDbArc
 50
224.6671267896
 51
270.0
  0
ARC
  5
C3A
330
1F
100
AcDbEntity
  8
0
  6
Continuous
 62
     7
370
    25
100
AcDbCircle
 10
524.5704292992
 20
129.1051195254
 30
0.0
 40
4.999999999999773
100
AcDbArc
 50
270.0
 51
315.0
  0
ARC
  5
C3B
330
1F
100
AcDbEntity
  8
0
  6
Continuous
 62
     7
370
    25
100
AcDbCircle
 10
538.712564923
 20
129.1051195254
 30
0.0
 40
5.000000000000382
100
AcDbArc
 50
90.0
 51
135.0
  0
ARC
  5
C3C
330
1F
100
AcDbEntity
  8
0
  6
Continuous
 62
     7
370
    25
100
AcDbCircle
 10
550.6414971111
 20
129.1051195254
 30
0.0
 40
4.999999999999915
100
AcDbArc
 50
0.0
 51
90.0
  0
ARC
  5
C3D
330
1F
100
AcDbEntity
  8
0
  6
Continuous
 62
     7
370
    25
100
AcDbCircle
 10
550.6414971111
 20
82.18051739
 30
0.0
 40
5.000000000000015
100
AcDbArc
 50
277.3851219841
 51
0.0
  0
ARC
  5
C3E
330
1F
100
AcDbEntity
  8
0
  6
Continuous
 62
     7
370
    25
100
AcDbCircle
 10
550.6414961658
 20
52.263471779
 30
0.0
 40
5.000000000000114
100
AcDbArc
 50
0.0
 51
82.6148670928
  0
ARC
  5
C3F
330
1F
100
AcDbEntity
  8
0
  6
Continuous
 62
     7
370
    25
100
AcDbCircle
 10
550.6414961658
 20
5.3388695211
 30
0.0
 40
5.0
100
AcDbArc
 50
270.0
 51
0.0
  0
ARC
  5
C40
330
1F
100
AcDbEntity
  8
0
  6
Continuous
 62
     7
370
    25
100
AcDbCircle
 10
538.7125639777
 20
5.3388695211
 30
0.0
 40
4.9999999999998
100
AcDbArc
 50
225.0
 51
270.0
  0
ENDSEC
  0
SECTION
  2
OBJECTS
  0
DICTIONARY
  5
C
330
0
100
AcDbDictionary
281
     1
  3
ACAD_GROUP
350
D
  3
ACAD_LAYOUT
350
1A
  3
ACAD_MLINESTYLE
350
17
  3
ACAD_PLOTSETTINGS
350
19
  3
ACAD_PLOTSTYLENAME
350
E
  3
ACAD_SCALELIST
350
47
  0
DICTIONARY
  5
D
102
{ACAD_REACTORS
330
C
102
}
330
C
100
AcDbDictionary
281
     1
  0
DICTIONARY
  5
1A
102
{ACAD_REACTORS
330
C
102
}
330
C
100
AcDbDictionary
281
     1
  3
Layout1
350
1E
  3
Layout2
350
26
  3
Model
350
22
  0
DICTIONARY
  5
17
102
{ACAD_REACTORS
330
C
102
}
330
C
100
AcDbDictionary
281
     1
  3
Standard
350
18
  0
DICTIONARY
  5
19
102
{ACAD_REACTORS
330
C
102
}
330
C
100
AcDbDictionary
281
     1
  0
ACDBDICTIONARYWDFLT
  5
E
102
{ACAD_REACTORS
330
C
102
}
330
C
100
AcDbDictionary
281
     1
  3
Normal
350
F
100
AcDbDictionaryWithDefault
340
F
  0
DICTIONARY
  5
47
102
{ACAD_REACTORS
330
C
102
}
330
C
100
AcDbDictionary
281
     1
  3
A0
350
48
  3
A1
350
49
  3
A2
350
4A
  3
A3
350
4B
  3
A4
350
4C
  3
A5
350
4D
  3
A6
350
4E
  3
A7
350
4F
  3
A8
350
50
  3
A9
350
51
  3
B0
350
52
  3
B1
350
53
  3
B2
350
54
  3
B3
350
55
  3
B4
350
56
  3
B5
350
57
  3
B6
350
58
  3
B7
350
59
  3
B8
350
5A
  3
B9
350
5B
  3
C0
350
5C
  3
C1
350
5D
  3
C2
350
5E
  3
C3
350
5F
  3
C4
350
60
  3
C5
350
61
  3
C6
350
62
  3
C7
350
63
  3
C8
350
64
  3
C9
350
65
  3
D0
350
66
  3
D1
350
67
  3
D2
350
68
  0
LAYOUT
  5
1E
102
{ACAD_REACTORS
330
1A
102
}
330
1A
100
AcDbPlotSettings
  1

  2
none_device
  4

  6

 40
0.0
 41
0.0
 42
0.0
 43
0.0
 44
0.0
 45
0.0
 46
0.0
 47
0.0
 48
0.0
 49
0.0
140
0.0
141
0.0
142
1.0
143
1.0
 70
   688
 72
     1
 73
     0
 74
     5
  7

 75
    16
147
1.0
148
0.0
149
0.0
100
AcDbLayout
  1
Layout1
 70
     1
 71
     1
 10
0.0
 20
0.0
 11
420.0
 21
297.0
 12
0.0
 22
0.0
 32
0.0
 14
1.0000000000E+20
 24
1.0000000000E+20
 34
1.0000000000E+20
 15
-1.0000000000E+20
 25
-1.0000000000E+20
 35
-1.0000000000E+20
146
0.0
 13
0.0
 23
0.0
 33
0.0
 16
1.0
 26
0.0
 36
0.0
 17
0.0
 27
1.0
 37
0.0
 76
     0
330
1B
  0
LAYOUT
  5
26
102
{ACAD_REACTORS
330
1A
102
}
330
1A
100
AcDbPlotSettings
  1

  2
none_device
  4

  6

 40
0.0
 41
0.0
 42
0.0
 43
0.0
 44
0.0
 45
0.0
 46
0.0
 47
0.0
 48
0.0
 49
0.0
140
0.0
141
0.0
142
1.0
143
1.0
 70
   688
 72
     1
 73
     0
 74
     5
  7

 75
    16
147
1.0
148
0.0
149
0.0
100
AcDbLayout
  1
Layout2
 70
     1
 71
     2
 10
0.0
 20
0.0
 11
0.0
 21
0.0
 12
0.0
 22
0.0
 32
0.0
 14
0.0
 24
0.0
 34
0.0
 15
0.0
 25
0.0
 35
0.0
146
0.0
 13
0.0
 23
0.0
 33
0.0
 16
1.0
 26
0.0
 36
0.0
 17
0.0
 27
1.0
 37
0.0
 76
     0
330
23
  0
LAYOUT
  5
22
102
{ACAD_REACTORS
330
1A
102
}
330
1A
100
AcDbPlotSettings
  1

  2
none_device
  4
ANSI_A_(11.00_x_8.50_Inches)
  6

 40
6.35
 41
19.05
 42
6.35000508
 43
19.05000254
 44
279.4
 45
215.9
 46
27.7530561428
 47
39.6725857991
 48
0.0
 49
0.0
140
0.0
141
0.0
142
0.0172815744
143
1.0
 70
  1696
 72
     0
 73
     0
 74
     0
  7

 75
     0
147
0.0179189148
148
-1300.4909072572
149
0.0
100
AcDbLayout
  1
Model
 70
     1
 71
     0
 10
0.0
 20
0.0
 11
420.0
 21
297.0
 12
0.0
 22
0.0
 32
0.0
 14
-74.5094210066
 24
-1.9196383816
 34
0.0
 15
555.6414971111
 25
226.2148413414
 35
0.0
146
0.0
 13
0.0
 23
0.0
 33
0.0
 16
1.0
 26
0.0
 36
0.0
 17
0.0
 27
1.0
 37
0.0
 76
     0
330
1F
331
29
  0
MLINESTYLE
  5
18
102
{ACAD_REACTORS
330
17
102
}
330
17
100
AcDbMlineStyle
  2
Standard
 70
     0
  3

 62
   256
 51
90.0
 52
90.0
 71
     2
 49
0.5
 62
   256
  6
BYLAYER
 49
-0.5
 62
   256
  6
BYLAYER
  0
ACDBPLACEHOLDER
  5
F
102
{ACAD_REACTORS
330
E
102
}
330
E
  0
SCALE
  5
48
102
{ACAD_REACTORS
330
47
102
}
330
47
100
AcDbScale
 70
     0
300
1:1
140
1.0
141
1.0
290
     1
  0
SCALE
  5
49
102
{ACAD_REACTORS
330
47
102
}
330
47
100
AcDbScale
 70
     0
300
1:2
140
1.0
141
2.0
290
     0
  0
SCALE
  5
4A
102
{ACAD_REACTORS
330
47
102
}
330
47
100
AcDbScale
 70
     0
300
1:4
140
1.0
141
4.0
290
     0
  0
SCALE
  5
4B
102
{ACAD_REACTORS
330
47
102
}
330
47
100
AcDbScale
 70
     0
300
1:5
140
1.0
141
5.0
290
     0
  0
SCALE
  5
4C
102
{ACAD_REACTORS
330
47
102
}
330
47
100
AcDbScale
 70
     0
300
1:8
140
1.0
141
8.0
290
     0
  0
SCALE
  5
4D
102
{ACAD_REACTORS
330
47
102
}
330
47
100
AcDbScale
 70
     0
300
1:10
140
1.0
141
10.0
290
     0
  0
SCALE
  5
4E
102
{ACAD_REACTORS
330
47
102
}
330
47
100
AcDbScale
 70
     0
300
1:16
140
1.0
141
16.0
290
     0
  0
SCALE
  5
4F
102
{ACAD_REACTORS
330
47
102
}
330
47
100
AcDbScale
 70
     0
300
1:20
140
1.0
141
20.0
290
     0
  0
SCALE
  5
50
102
{ACAD_REACTORS
330
47
102
}
330
47
100
AcDbScale
 70
     0
300
1:30
140
1.0
141
30.0
290
     0
  0
SCALE
  5
51
102
{ACAD_REACTORS
330
47
102
}
330
47
100
AcDbScale
 70
     0
300
1:40
140
1.0
141
40.0
290
     0
  0
SCALE
  5
52
102
{ACAD_REACTORS
330
47
102
}
330
47
100
AcDbScale
 70
     0
300
1:50
140
1.0
141
50.0
290
     0
  0
SCALE
  5
53
102
{ACAD_REACTORS
330
47
102
}
330
47
100
AcDbScale
 70
     0
300
1:100
140
1.0
141
100.0
290
     0
  0
SCALE
  5
54
102
{ACAD_REACTORS
330
47
102
}
330
47
100
AcDbScale
 70
     0
300
2:1
140
2.0
141
1.0
290
     0
  0
SCALE
  5
55
102
{ACAD_REACTORS
330
47
102
}
330
47
100
AcDbScale
 70
     0
300
4:1
140
4.0
141
1.0
290
     0
  0
SCALE
  5
56
102
{ACAD_REACTORS
330
47
102
}
330
47
100
AcDbScale
 70
     0
300
8:1
140
8.0
141
1.0
290
     0
  0
SCALE
  5
57
102
{ACAD_REACTORS
330
47
102
}
330
47
100
AcDbScale
 70
     0
300
10:1
140
10.0
141
1.0
290
     0
  0
SCALE
  5
58
102
{ACAD_REACTORS
330
47
102
}
330
47
100
AcDbScale
 70
     0
300
100:1
140
100.0
141
1.0
290
     0
  0
SCALE
  5
59
102
{ACAD_REACTORS
330
47
102
}
330
47
100
AcDbScale
 70
     0
300
1/128" = 1'-0"
140
0.0078125
141
12.0
290
     0
  0
SCALE
  5
5A
102
{ACAD_REACTORS
330
47
102
}
330
47
100
AcDbScale
 70
     0
300
1/64" = 1'-0"
140
0.015625
141
12.0
290
     0
  0
SCALE
  5
5B
102
{ACAD_REACTORS
330
47
102
}
330
47
100
AcDbScale
 70
     0
300
1/32" = 1'-0"
140
0.03125
141
12.0
290
     0
  0
SCALE
  5
5C
102
{ACAD_REACTORS
330
47
102
}
330
47
100
AcDbScale
 70
     0
300
1/16" = 1'-0"
140
0.0625
141
12.0
290
     0
  0
SCALE
  5
5D
102
{ACAD_REACTORS
330
47
102
}
330
47
100
AcDbScale
 70
     0
300
3/32" = 1'-0"
140
0.09375
141
12.0
290
     0
  0
SCALE
  5
5E
102
{ACAD_REACTORS
330
47
102
}
330
47
100
AcDbScale
 70
     0
300
1/8" = 1'-0"
140
0.125
141
12.0
290
     0
  0
SCALE
  5
5F
102
{ACAD_REACTORS
330
47
102
}
330
47
100
AcDbScale
 70
     0
300
3/16" = 1'-0"
140
0.1875
141
12.0
290
     0
  0
SCALE
  5
60
102
{ACAD_REACTORS
330
47
102
}
330
47
100
AcDbScale
 70
     0
300
1/4" = 1'-0"
140
0.25
141
12.0
290
     0
  0
SCALE
  5
61
102
{ACAD_REACTORS
330
47
102
}
330
47
100
AcDbScale
 70
     0
300
3/8" = 1'-0"
140
0.375
141
12.0
290
     0
  0
SCALE
  5
62
102
{ACAD_REACTORS
330
47
102
}
330
47
100
AcDbScale
 70
     0
300
1/2" = 1'-0"
140
0.5
141
12.0
290
     0
  0
SCALE
  5
63
102
{ACAD_REACTORS
330
47
102
}
330
47
100
AcDbScale
 70
     0
300
3/4" = 1'-0"
140
0.75
141
12.0
290
     0
  0
SCALE
  5
64
102
{ACAD_REACTORS
330
47
102
}
330
47
100
AcDbScale
 70
     0
300
1" = 1'-0"
140
1.0
141
12.0
290
     0
  0
SCALE
  5
65
102
{ACAD_REACTORS
330
47
102
}
330
47
100
AcDbScale
 70
     0
300
1-1/2" = 1'-0"
140
1.5
141
12.0
290
     0
  0
SCALE
  5
66
102
{ACAD_REACTORS
330
47
102
}
330
47
100
AcDbScale
 70
     0
300
3" = 1'-0"
140
3.0
141
12.0
290
     0
  0
SCALE
  5
67
102
{ACAD_REACTORS
330
47
102
}
330
47
100
AcDbScale
 70
     0
300
6" = 1'-0"
140
6.0
141
12.0
290
     0
  0
SCALE
  5
68
102
{ACAD_REACTORS
330
47
102
}
330
47
100
AcDbScale
 70
     0
300
1'-0" = 1'-0"
140
12.0
141
12.0
290
     0
  0
ENDSEC
  0
EOF
