  0
SECTION
  2
HEADER
  9
$ACADVER
  1
AC1009
  9
$EXTMAX
 10
734.116821289063
 20
182.041519165039
 30
0.0
  9
$EXTMIN
 10
2.0761480331421
 20
1.9712308645248
 30
0.0
  9
$INSUNITS
 70
     4
  9
$LUNITS
 70
     2
  9
$LUPREC
 70
     4
  9
$MEASUREMENT
 70
     1
  0
ENDSEC
  0
SECTION
  2
TABLES
  0
TABLE
  2
LAYER
 70
     1
  0
LAYER
  2
0
 70
     0
 62
     7
  6
Continuous
  0
LAYER
  2
PROFILEEDGES
 70
     0
 62
     7
  6
Continuous
  0
LAYER
  2
SECTIONCUTEDGES
 70
     0
 62
     7
  6
Continuous
  0
ENDTAB
  0
TABLE
  2
APPID
 70
     1
  0
APPID
  2
ACAD
 70
     0
  0
ENDTAB
  0
ENDSEC
  0
SECTION
  2
ENTITIES
  0
POLYLINE
  8
0
 66
     1
 10
0.0
 20
0.0
 30
0.0
 70
     1
  0
VERTEX
  8
0
 10
448.456808956895
 20
83.480756037363
 42
0.0
  0
VERTEX
  8
0
 10
448.854105534898
 20
82.962989088317
 42
0.0
  0
VERTEX
  8
0
 10
449.37187250763
 20
82.565692541171
 42
0.0
  0
VERTEX
  8
0
 10
449.974824911546
 20
82.315941499054
 42
0.0
  0
VERTEX
  8
0
 10
450.621872536743
 20
82.230756082756
 42
0.0
  0
VERTEX
  8
0
 10
451.268920156864
 20
82.315941537622
 42
0.0
  0
VERTEX
  8
0
 10
451.871872545892
 20
82.565692615675
 42
0.0
  0
VERTEX
  8
0
 10
452.389639494942
 20
82.962989193683
 42
0.0
  0
VERTEX
  8
0
 10
452.78693604209
 20
83.480756166412
 42
0.0
  0
VERTEX
  8
0
 10
453.036687084203
 20
84.083708570329
 42
0.0
  0
VERTEX
  8
0
 10
453.121872500501
 20
84.730756195526
 42
0.0
  0
VERTEX
  8
0
 10
453.036687045636
 20
85.377803815648
 42
0.0
  0
VERTEX
  8
0
 10
452.786935967583
 20
85.980756204675
 42
0.0
  0
VERTEX
  8
0
 10
452.389639389575
 20
86.498523153726
 42
0.0
  0
VERTEX
  8
0
 10
451.871872416843
 20
86.895819700871
 42
0.0
  0
VERTEX
  8
0
 10
451.268920012928
 20
87.145570742985
 42
0.0
  0
VERTEX
  8
0
 10
450.62187238773
 20
87.23075615928
 42
0.0
  0
VERTEX
  8
0
 10
449.974824767609
 20
87.145570704417
 42
0.0
  0
VERTEX
  8
0
 10
449.37187237858
 20
86.895819626365
 42
0.0
  0
VERTEX
  8
0
 10
448.854105429531
 20
86.498523048362
 42
0.0
  0
VERTEX
  8
0
 10
448.456808882389
 20
85.980756075625
 42
0.0
  0
VERTEX
  8
0
 10
448.207057840273
 20
85.37780367171
 42
0.0
  0
VERTEX
  8
0
 10
448.121872423976
 20
84.730756046513
 42
0.0
  0
VERTEX
  8
0
 10
448.20705787884
 20
84.083708426392
 42
0.0
  0
SEQEND
  0
POLYLINE
  8
0
 66
     1
 10
0.0
 20
0.0
 30
0.0
 70
     1
  0
VERTEX
  8
0
 10
460.823660287348
 20
130.434870639553
 42
0.0
  0
VERTEX
  8
0
 10
460.679717877808
 20
130.599005500195
 42
0.0
  0
VERTEX
  8
0
 10
460.515583017165
 20
130.742947909737
 42
0.0
  0
VERTEX
  8
0
 10
460.334064098392
 20
130.864234973639
 42
0.0
  0
VERTEX
  8
0
 10
460.138266960515
 20
130.960791436613
 42
0.0
  0
VERTEX
  8
0
 10
459.93154174685
 20
131.030965190806
 42
0.0
  0
VERTEX
  8
0
 10
459.717425583116
 20
131.073555543828
 42
0.0
  0
VERTEX
  8
0
 10
457.599135871541
 20
131.073555543828
 42
0.0
  0
VERTEX
  8
0
 10
457.385019707807
 20
131.030965190806
 42
0.0
  0
VERTEX
  8
0
 10
457.178294494142
 20
130.960791436613
 42
0.0
  0
VERTEX
  8
0
 10
456.982497356265
 20
130.864234973639
 42
0.0
  0
VERTEX
  8
0
 10
456.800978437492
 20
130.742947909736
 42
0.0
  0
VERTEX
  8
0
 10
456.636843576849
 20
130.599005500195
 42
0.0
  0
VERTEX
  8
0
 10
456.492901167308
 20
130.434870639552
 42
0.0
  0
VERTEX
  8
0
 10
456.371614103405
 20
130.253351720779
 42
0.0
  0
VERTEX
  8
0
 10
456.275057640431
 20
130.057554582903
 42
0.0
  0
VERTEX
  8
0
 10
456.204883886239
 20
129.850829369237
 42
0.0
  0
VERTEX
  8
0
 10
456.162293533216
 20
129.636713205503
 42
0.0
  0
VERTEX
  8
0
 10
456.15872397844
 20
128.666734365936
 42
0.0
  0
VERTEX
  8
0
 10
456.148015314113
 20
120.756797847237
 42
0.0
  0
VERTEX
  8
0
 10
456.204883886239
 20
120.324838156626
 42
0.0
  0
VERTEX
  8
0
 10
456.275057640432
 20
120.11811294296
 42
0.0
  0
VERTEX
  8
0
 10
456.371614103406
 20
119.922315805084
 42
0.0
  0
VERTEX
  8
0
 10
456.492901167309
 20
119.74079688631
 42
0.0
  0
VERTEX
  8
0
 10
456.636843576849
 20
119.576662025668
 42
0.0
  0
VERTEX
  8
0
 10
456.800978437492
 20
119.432719616127
 42
0.0
  0
VERTEX
  8
0
 10
456.982497356265
 20
119.311432552224
 42
0.0
  0
VERTEX
  8
0
 10
457.178294494142
 20
119.214876089251
 42
0.0
  0
VERTEX
  8
0
 10
457.385019707807
 20
119.144702335058
 42
0.0
  0
VERTEX
  8
0
 10
457.816979398418
 20
119.087833762932
 42
0.0
  0
VERTEX
  8
0
 10
459.717425583116
 20
119.102111982035
 42
0.0
  0
VERTEX
  8
0
 10
459.93154174685
 20
119.144702335058
 42
0.0
  0
VERTEX
  8
0
 10
460.138266960515
 20
119.214876089251
 42
0.0
  0
VERTEX
  8
0
 10
460.334064098392
 20
119.311432552225
 42
0.0
  0
VERTEX
  8
0
 10
460.515583017165
 20
119.432719616128
 42
0.0
  0
VERTEX
  8
0
 10
460.679717877808
 20
119.576662025668
 42
0.0
  0
VERTEX
  8
0
 10
460.823660287349
 20
119.740796886311
 42
0.0
  0
VERTEX
  8
0
 10
460.944947351251
 20
119.922315805085
 42
0.0
  0
VERTEX
  8
0
 10
461.041503814225
 20
120.118112942961
 42
0.0
  0
VERTEX
  8
0
 10
461.111677568418
 20
120.324838156626
 42
0.0
  0
VERTEX
  8
0
 10
461.154267921441
 20
120.538954320361
 42
0.0
  0
VERTEX
  8
0
 10
461.154267921441
 20
129.636713205504
 42
0.0
  0
VERTEX
  8
0
 10
461.111677568418
 20
129.850829369237
 42
0.0
  0
VERTEX
  8
0
 10
461.041503814224
 20
130.057554582903
 42
0.0
  0
VERTEX
  8
0
 10
460.94494735125
 20
130.25335172078
 42
0.0
  0
SEQEND
  0
POLYLINE
  8
0
 66
     1
 10
0.0
 20
0.0
 30
0.0
 70
     1
  0
VERTEX
  8
0
 10
443.302317383543
 20
140.268386556933
 42
0.0
  0
VERTEX
  8
0
 10
443.572788701969
 20
139.959973127566
 42
0.0
  0
VERTEX
  8
0
 10
443.881202131336
 20
139.68950180914
 42
0.0
  0
VERTEX
  8
0
 10
444.222280632361
 20
139.461600440902
 42
0.0
  0
VERTEX
  8
0
 10
444.590188257324
 20
139.28016847845
 42
0.0
  0
VERTEX
  8
0
 10
444.978630004759
 20
139.148310272963
 42
0.0
  0
VERTEX
  8
0
 10
445.380959528672
 20
139.068281954894
 42
0.0
  0
VERTEX
  8
0
 10
445.790292859362
 20
139.041452830955
 42
0.0
  0
VERTEX
  8
0
 10
455.49108224579
 20
139.041452830955
 42
0.0
  0
VERTEX
  8
0
 10
455.90041557648
 20
139.068281954894
 42
0.0
  0
VERTEX
  8
0
 10
456.302745100393
 20
139.148310272963
 42
0.0
  0
VERTEX
  8
0
 10
456.691186847828
 20
139.28016847845
 42
0.0
  0
VERTEX
  8
0
 10
457.059094472791
 20
139.461600440902
 42
0.0
  0
VERTEX
  8
0
 10
457.400172973815
 20
139.68950180914
 42
0.0
  0
VERTEX
  8
0
 10
457.708586403182
 20
139.959973127566
 42
0.0
  0
VERTEX
  8
0
 10
457.979057721606
 20
140.268386556933
 42
0.0
  0
VERTEX
  8
0
 10
458.206959089846
 20
140.609465057956
 42
0.0
  0
VERTEX
  8
0
 10
458.388391052298
 20
140.977372682919
 42
0.0
  0
VERTEX
  8
0
 10
458.520249257786
 20
141.365814430354
 42
0.0
  0
VERTEX
  8
0
 10
458.600277575853
 20
141.768143954267
 42
0.0
  0
VERTEX
  8
0
 10
458.627106699792
 20
142.177477284957
 42
0.0
  0
VERTEX
  8
0
 10
458.627106699793
 20
165.892336964253
 42
0.0
  0
VERTEX
  8
0
 10
458.570222591811
 20
166.760220739963
 42
0.0
  0
VERTEX
  8
0
 10
458.400543570726
 20
167.613254783649
 42
0.0
  0
VERTEX
  8
0
 10
458.120972891632
 20
168.436843446316
 42
0.0
  0
VERTEX
  8
0
 10
457.73629408636
 20
169.216894897604
 42
0.0
  0
VERTEX
  8
0
 10
457.253089115922
 20
169.940062240911
 42
0.0
  0
VERTEX
  8
0
 10
456.67962575133
 20
170.593971882493
 42
0.0
  0
VERTEX
  8
0
 10
456.025716109747
 20
171.167435247085
 42
0.0
  0
VERTEX
  8
0
 10
455.30254876644
 20
171.650640217523
 42
0.0
  0
VERTEX
  8
0
 10
454.522497315153
 20
172.035319022795
 42
0.0
  0
VERTEX
  8
0
 10
453.698908652486
 20
172.314889701889
 42
0.0
  0
VERTEX
  8
0
 10
452.8458746088
 20
172.484568722974
 42
0.0
  0
VERTEX
  8
0
 10
451.97799083309
 20
172.541452830956
 42
0.0
  0
VERTEX
  8
0
 10
445.790292859362
 20
172.541452830955
 42
0.0
  0
VERTEX
  8
0
 10
445.380959528672
 20
172.514623707016
 42
0.0
  0
VERTEX
  8
0
 10
444.978630004759
 20
172.434595388948
 42
0.0
  0
VERTEX
  8
0
 10
444.590188257324
 20
172.30273718346
 42
0.0
  0
VERTEX
  8
0
 10
444.222280632361
 20
172.121305221008
 42
0.0
  0
VERTEX
  8
0
 10
443.881202131338
 20
171.893403852771
 42
0.0
  0
VERTEX
  8
0
 10
443.57278870197
 20
171.622932534345
 42
0.0
  0
VERTEX
  8
0
 10
443.302317383545
 20
171.314519104978
 42
0.0
  0
VERTEX
  8
0
 10
443.074416015307
 20
170.973440603954
 42
0.0
  0
VERTEX
  8
0
 10
442.892984052855
 20
170.605532978991
 42
0.0
  0
VERTEX
  8
0
 10
442.761125847367
 20
170.217091231556
 42
0.0
  0
VERTEX
  8
0
 10
442.681097529299
 20
169.814761707643
 42
0.0
  0
VERTEX
  8
0
 10
442.65426840536
 20
169.405428376953
 42
0.0
  0
VERTEX
  8
0
 10
442.65426840536
 20
142.177477284958
 42
0.0
  0
VERTEX
  8
0
 10
442.681097529299
 20
141.768143954268
 42
0.0
  0
VERTEX
  8
0
 10
442.761125847368
 20
141.365814430354
 42
0.0
  0
VERTEX
  8
0
 10
442.892984052856
 20
140.977372682919
 42
0.0
  0
VERTEX
  8
0
 10
443.074416015308
 20
140.609465057956
 42
0.0
  0
SEQEND
  0
POLYLINE
  8
0
 66
     1
 10
0.0
 20
0.0
 30
0.0
 70
     1
  0
VERTEX
  8
0
 10
255.224618206016
 20
163.893093688161
 42
0.0
  0
VERTEX
  8
0
 10
256.085272443662
 20
164.249588345903
 42
0.0
  0
VERTEX
  8
0
 10
256.824332992409
 20
164.816689450708
 42
0.0
  0
VERTEX
  8
0
 10
257.391434097218
 20
165.555749999454
 42
0.0
  0
VERTEX
  8
0
 10
257.747928754965
 20
166.416404237102
 42
0.0
  0
VERTEX
  8
0
 10
257.869522443866
 20
167.339999999654
 42
0.0
  0
VERTEX
  8
0
 10
257.747928754964
 20
168.263595762206
 42
0.0
  0
VERTEX
  8
0
 10
257.391434097215
 20
169.124249999854
 42
0.0
  0
VERTEX
  8
0
 10
256.824332992414
 20
169.863310548602
 42
0.0
  0
VERTEX
  8
0
 10
256.085272443667
 20
170.430411653405
 42
0.0
  0
VERTEX
  8
0
 10
255.224618206018
 20
170.786906311159
 42
0.0
  0
VERTEX
  8
0
 10
254.301022443467
 20
170.908500000056
 42
0.0
  0
VERTEX
  8
0
 10
253.377426680915
 20
170.786906311154
 42
0.0
  0
VERTEX
  8
0
 10
252.516772443267
 20
170.430411653408
 42
0.0
  0
VERTEX
  8
0
 10
251.77771189452
 20
169.863310548601
 42
0.0
  0
VERTEX
  8
0
 10
251.210610789713
 20
169.124249999856
 42
0.0
  0
VERTEX
  8
0
 10
250.854116131967
 20
168.263595762208
 42
0.0
  0
VERTEX
  8
0
 10
250.732522443066
 20
167.339999999654
 42
0.0
  0
VERTEX
  8
0
 10
250.854116131967
 20
166.416404237104
 42
0.0
  0
VERTEX
  8
0
 10
251.210610789715
 20
165.555749999456
 42
0.0
  0
VERTEX
  8
0
 10
251.777711894515
 20
164.816689450708
 42
0.0
  0
VERTEX
  8
0
 10
252.516772443262
 20
164.249588345905
 42
0.0
  0
VERTEX
  8
0
 10
253.377426680911
 20
163.893093688156
 42
0.0
  0
VERTEX
  8
0
 10
254.301022443465
 20
163.771499999257
 42
0.0
  0
SEQEND
  0
POLYLINE
  8
0
 66
     1
 10
0.0
 20
0.0
 30
0.0
 70
     1
  0
VERTEX
  8
0
 10
413.065929023259
 20
103.440784231078
 42
0.0
  0
VERTEX
  8
0
 10
412.816196911489
 20
102.837840692715
 42
0.0
  0
VERTEX
  8
0
 10
412.418891206414
 20
102.320063119645
 42
0.0
  0
VERTEX
  8
0
 10
411.901139033275
 20
101.922782814502
 42
0.0
  0
VERTEX
  8
0
 10
411.298170094982
 20
101.673025302801
 42
0.0
  0
VERTEX
  8
0
 10
410.651132278137
 20
101.587833937578
 42
0.0
  0
VERTEX
  8
0
 10
410.004094461293
 20
101.673025302801
 42
0.0
  0
VERTEX
  8
0
 10
409.401125523
 20
101.922782814501
 42
0.0
  0
VERTEX
  8
0
 10
408.88337334986
 20
102.320063119646
 42
0.0
  0
VERTEX
  8
0
 10
408.486067644785
 20
102.837840692715
 42
0.0
  0
VERTEX
  8
0
 10
408.236310133086
 20
103.440784231079
 42
0.0
  0
VERTEX
  8
0
 10
408.151144167792
 20
104.087822047923
 42
0.0
  0
VERTEX
  8
0
 10
408.151144167793
 20
125.087955682464
 42
0.0
  0
VERTEX
  8
0
 10
408.236310133086
 20
125.734993499308
 42
0.0
  0
VERTEX
  8
0
 10
408.486067644785
 20
126.33793703767
 42
0.0
  0
VERTEX
  8
0
 10
408.88337334986
 20
126.855714610741
 42
0.0
  0
VERTEX
  8
0
 10
409.401125523
 20
127.252994915885
 42
0.0
  0
VERTEX
  8
0
 10
410.004094461293
 20
127.502752427584
 42
0.0
  0
VERTEX
  8
0
 10
410.651132278137
 20
127.587943792808
 42
0.0
  0
VERTEX
  8
0
 10
411.298170094982
 20
127.502752427584
 42
0.0
  0
VERTEX
  8
0
 10
411.901139033275
 20
127.252994915886
 42
0.0
  0
VERTEX
  8
0
 10
412.418891206414
 20
126.85571461074
 42
0.0
  0
VERTEX
  8
0
 10
412.816196911489
 20
126.33793703767
 42
0.0
  0
VERTEX
  8
0
 10
413.065929023259
 20
125.734993499307
 42
0.0
  0
VERTEX
  8
0
 10
413.151120388483
 20
125.087955682463
 42
0.0
  0
VERTEX
  8
0
 10
413.151120388482
 20
104.087822047922
 42
0.0
  0
SEQEND
  0
POLYLINE
  8
0
 66
     1
 10
0.0
 20
0.0
 30
0.0
 70
     1
  0
VERTEX
  8
0
 10
433.065884705878
 20
103.440784231079
 42
0.0
  0
VERTEX
  8
0
 10
432.816127194178
 20
102.837840692716
 42
0.0
  0
VERTEX
  8
0
 10
432.418846889033
 20
102.320063119646
 42
0.0
  0
VERTEX
  8
0
 10
431.901069315964
 20
101.922782814501
 42
0.0
  0
VERTEX
  8
0
 10
431.298125777601
 20
101.673025302801
 42
0.0
  0
VERTEX
  8
0
 10
430.651087960756
 20
101.587833937577
 42
0.0
  0
VERTEX
  8
0
 10
430.004024743982
 20
101.673025302801
 42
0.0
  0
VERTEX
  8
0
 10
429.401081205619
 20
101.922782814501
 42
0.0
  0
VERTEX
  8
0
 10
428.883303632549
 20
102.320063119645
 42
0.0
  0
VERTEX
  8
0
 10
428.486023327404
 20
102.837840692716
 42
0.0
  0
VERTEX
  8
0
 10
428.236265815705
 20
103.440784231079
 42
0.0
  0
VERTEX
  8
0
 10
428.151074450481
 20
104.087822047923
 42
0.0
  0
VERTEX
  8
0
 10
428.151074450482
 20
125.087955682464
 42
0.0
  0
VERTEX
  8
0
 10
428.236265815705
 20
125.734993499308
 42
0.0
  0
VERTEX
  8
0
 10
428.486023327404
 20
126.337937037671
 42
0.0
  0
VERTEX
  8
0
 10
428.883303632549
 20
126.85571461074
 42
0.0
  0
VERTEX
  8
0
 10
429.401081205619
 20
127.252994915885
 42
0.0
  0
VERTEX
  8
0
 10
430.004024743982
 20
127.502752427584
 42
0.0
  0
VERTEX
  8
0
 10
430.651087960756
 20
127.587943792807
 42
0.0
  0
VERTEX
  8
0
 10
431.298125777601
 20
127.502752427585
 42
0.0
  0
VERTEX
  8
0
 10
431.901069315964
 20
127.252994915884
 42
0.0
  0
VERTEX
  8
0
 10
432.418846889033
 20
126.85571461074
 42
0.0
  0
VERTEX
  8
0
 10
432.816127194178
 20
126.33793703767
 42
0.0
  0
VERTEX
  8
0
 10
433.065884705878
 20
125.734993499307
 42
0.0
  0
VERTEX
  8
0
 10
433.151076071102
 20
125.087955682463
 42
0.0
  0
VERTEX
  8
0
 10
433.151076071101
 20
104.087822047923
 42
0.0
  0
SEQEND
  0
POLYLINE
  8
0
 66
     1
 10
0.0
 20
0.0
 30
0.0
 70
     1
  0
VERTEX
  8
0
 10
355.827586375779
 20
17.949999999482
 42
0.0
  0
VERTEX
  8
0
 10
355.430289819084
 20
18.467766952709
 42
0.0
  0
VERTEX
  8
0
 10
354.912522865856
 20
18.865063509402
 42
0.0
  0
VERTEX
  8
0
 10
354.309570478308
 20
19.114814565791
 42
0.0
  0
VERTEX
  8
0
 10
353.662522865225
 20
19.200000000112
 42
0.0
  0
VERTEX
  8
0
 10
353.015475252143
 20
19.114814565792
 42
0.0
  0
VERTEX
  8
0
 10
352.412522864596
 20
18.865063509404
 42
0.0
  0
VERTEX
  8
0
 10
351.894755911369
 20
18.467766952708
 42
0.0
  0
VERTEX
  8
0
 10
351.497459354674
 20
17.94999999948
 42
0.0
  0
VERTEX
  8
0
 10
351.247708298288
 20
17.347047611935
 42
0.0
  0
VERTEX
  8
0
 10
351.162522863966
 20
16.699999998852
 42
0.0
  0
VERTEX
  8
0
 10
351.247708298286
 20
16.052952385771
 42
0.0
  0
VERTEX
  8
0
 10
351.497459354672
 20
15.44999999822
 42
0.0
  0
VERTEX
  8
0
 10
351.894755911367
 20
14.932233044993
 42
0.0
  0
VERTEX
  8
0
 10
352.412522864595
 20
14.534936488299
 42
0.0
  0
VERTEX
  8
0
 10
353.015475252143
 20
14.285185431913
 42
0.0
  0
VERTEX
  8
0
 10
353.662522865225
 20
14.199999997592
 42
0.0
  0
VERTEX
  8
0
 10
354.309570478308
 20
14.285185431912
 42
0.0
  0
VERTEX
  8
0
 10
354.912522865855
 20
14.534936488297
 42
0.0
  0
VERTEX
  8
0
 10
355.430289819082
 20
14.932233044994
 42
0.0
  0
VERTEX
  8
0
 10
355.827586375776
 20
15.449999998222
 42
0.0
  0
VERTEX
  8
0
 10
356.077337432165
 20
16.052952385772
 42
0.0
  0
VERTEX
  8
0
 10
356.162522866485
 20
16.699999998854
 42
0.0
  0
VERTEX
  8
0
 10
356.077337432167
 20
17.347047611938
 42
0.0
  0
SEQEND
  0
POLYLINE
  8
0
 66
     1
 10
0.0
 20
0.0
 30
0.0
 70
     1
  0
VERTEX
  8
0
 10
384.451899945807
 20
164.090000301518
 42
0.0
  0
VERTEX
  8
0
 10
384.84919652381
 20
163.572233352472
 42
0.0
  0
VERTEX
  8
0
 10
385.366963496542
 20
163.174936805326
 42
0.0
  0
VERTEX
  8
0
 10
385.969915900458
 20
162.925185763209
 42
0.0
  0
VERTEX
  8
0
 10
386.616963525656
 20
162.840000346912
 42
0.0
  0
VERTEX
  8
0
 10
387.264011145777
 20
162.925185801778
 42
0.0
  0
VERTEX
  8
0
 10
387.866963534805
 20
163.17493687983
 42
0.0
  0
VERTEX
  8
0
 10
388.384730483854
 20
163.572233457837
 42
0.0
  0
VERTEX
  8
0
 10
388.782027031002
 20
164.090000430567
 42
0.0
  0
VERTEX
  8
0
 10
389.031778073114
 20
164.692952834483
 42
0.0
  0
VERTEX
  8
0
 10
389.116963489415
 20
165.34000045968
 42
0.0
  0
VERTEX
  8
0
 10
389.031778034549
 20
165.987048079801
 42
0.0
  0
VERTEX
  8
0
 10
388.782026956496
 20
166.59000046883
 42
0.0
  0
VERTEX
  8
0
 10
388.384730378487
 20
167.107767417881
 42
0.0
  0
VERTEX
  8
0
 10
387.866963405756
 20
167.505063965025
 42
0.0
  0
VERTEX
  8
0
 10
387.264011001841
 20
167.754815007141
 42
0.0
  0
VERTEX
  8
0
 10
386.616963376643
 20
167.840000423436
 42
0.0
  0
VERTEX
  8
0
 10
385.969915756522
 20
167.754814968572
 42
0.0
  0
VERTEX
  8
0
 10
385.366963367494
 20
167.50506389052
 42
0.0
  0
VERTEX
  8
0
 10
384.849196418443
 20
167.107767312516
 42
0.0
  0
VERTEX
  8
0
 10
384.451899871301
 20
166.59000033978
 42
0.0
  0
VERTEX
  8
0
 10
384.202148829187
 20
165.987047935865
 42
0.0
  0
VERTEX
  8
0
 10
384.11696341289
 20
165.340000310667
 42
0.0
  0
VERTEX
  8
0
 10
384.202148867752
 20
164.692952690547
 42
0.0
  0
SEQEND
  0
POLYLINE
  8
0
 66
     1
 10
0.0
 20
0.0
 30
0.0
 70
     1
  0
VERTEX
  8
0
 10
428.410782743615
 20
144.215596085193
 42
0.0
  0
VERTEX
  8
0
 10
428.808079321619
 20
143.697829136145
 42
0.0
  0
VERTEX
  8
0
 10
429.325846294351
 20
143.300532588999
 42
0.0
  0
VERTEX
  8
0
 10
429.928798698267
 20
143.050781546882
 42
0.0
  0
VERTEX
  8
0
 10
430.575846323464
 20
142.965596130585
 42
0.0
  0
VERTEX
  8
0
 10
431.222893943585
 20
143.050781585451
 42
0.0
  0
VERTEX
  8
0
 10
431.825846332614
 20
143.300532663503
 42
0.0
  0
VERTEX
  8
0
 10
432.343613281663
 20
143.697829241511
 42
0.0
  0
VERTEX
  8
0
 10
432.740909828811
 20
144.215596214241
 42
0.0
  0
VERTEX
  8
0
 10
432.990660870924
 20
144.818548618157
 42
0.0
  0
VERTEX
  8
0
 10
433.075846287223
 20
145.465596243354
 42
0.0
  0
VERTEX
  8
0
 10
432.990660832357
 20
146.112643863476
 42
0.0
  0
VERTEX
  8
0
 10
432.740909754304
 20
146.715596252504
 42
0.0
  0
VERTEX
  8
0
 10
432.343613176296
 20
147.233363201554
 42
0.0
  0
VERTEX
  8
0
 10
431.825846203564
 20
147.630659748698
 42
0.0
  0
VERTEX
  8
0
 10
431.22289379965
 20
147.880410790813
 42
0.0
  0
VERTEX
  8
0
 10
430.57584617445
 20
147.965596207109
 42
0.0
  0
VERTEX
  8
0
 10
429.928798554331
 20
147.880410752245
 42
0.0
  0
VERTEX
  8
0
 10
429.325846165302
 20
147.630659674193
 42
0.0
  0
VERTEX
  8
0
 10
428.808079216252
 20
147.23336309619
 42
0.0
  0
VERTEX
  8
0
 10
428.41078266911
 20
146.715596123455
 42
0.0
  0
VERTEX
  8
0
 10
428.161031626994
 20
146.112643719539
 42
0.0
  0
VERTEX
  8
0
 10
428.075846210698
 20
145.465596094342
 42
0.0
  0
VERTEX
  8
0
 10
428.161031665561
 20
144.818548474221
 42
0.0
  0
SEQEND
  0
POLYLINE
  8
0
 66
     1
 10
0.0
 20
0.0
 30
0.0
 70
     1
  0
VERTEX
  8
0
 10
256.824332992408
 20
14.176689451062
 42
0.0
  0
VERTEX
  8
0
 10
257.391434097212
 20
14.915749999807
 42
0.0
  0
VERTEX
  8
0
 10
257.747928754958
 20
15.776404237456
 42
0.0
  0
VERTEX
  8
0
 10
257.869522443861
 20
16.700000000008
 42
0.0
  0
VERTEX
  8
0
 10
257.747928754962
 20
17.62359576256
 42
0.0
  0
VERTEX
  8
0
 10
257.391434097213
 20
18.484250000207
 42
0.0
  0
VERTEX
  8
0
 10
256.824332992409
 20
19.223310548956
 42
0.0
  0
VERTEX
  8
0
 10
256.085272443662
 20
19.79041165376
 42
0.0
  0
VERTEX
  8
0
 10
255.224618206013
 20
20.146906311512
 42
0.0
  0
VERTEX
  8
0
 10
254.301022443461
 20
20.26850000041
 42
0.0
  0
VERTEX
  8
0
 10
253.377426680909
 20
20.146906311508
 42
0.0
  0
VERTEX
  8
0
 10
252.516772443262
 20
19.790411653761
 42
0.0
  0
VERTEX
  8
0
 10
251.777711894514
 20
19.223310548955
 42
0.0
  0
VERTEX
  8
0
 10
251.210610789711
 20
18.48425000021
 42
0.0
  0
VERTEX
  8
0
 10
250.854116131964
 20
17.623595762561
 42
0.0
  0
VERTEX
  8
0
 10
250.732522443061
 20
16.700000000009
 42
0.0
  0
VERTEX
  8
0
 10
250.85411613196
 20
15.776404237457
 42
0.0
  0
VERTEX
  8
0
 10
251.21061078971
 20
14.91574999981
 42
0.0
  0
VERTEX
  8
0
 10
251.777711894514
 20
14.176689451061
 42
0.0
  0
VERTEX
  8
0
 10
252.516772443262
 20
13.609588346259
 42
0.0
  0
VERTEX
  8
0
 10
253.377426680909
 20
13.25309368851
 42
0.0
  0
VERTEX
  8
0
 10
254.301022443462
 20
13.131499999611
 42
0.0
  0
VERTEX
  8
0
 10
255.224618206013
 20
13.253093688515
 42
0.0
  0
VERTEX
  8
0
 10
256.085272443662
 20
13.609588346257
 42
0.0
  0
SEQEND
  0
POLYLINE
  8
0
 66
     1
 10
0.0
 20
0.0
 30
0.0
 70
     1
  0
VERTEX
  8
0
 10
408.804917784776
 20
82.962989088317
 42
0.0
  0
VERTEX
  8
0
 10
409.322684757506
 20
82.565692541171
 42
0.0
  0
VERTEX
  8
0
 10
409.925637161422
 20
82.315941499054
 42
0.0
  0
VERTEX
  8
0
 10
410.572684786619
 20
82.230756082756
 42
0.0
  0
VERTEX
  8
0
 10
411.219732406741
 20
82.315941537623
 42
0.0
  0
VERTEX
  8
0
 10
411.822684795769
 20
82.565692615676
 42
0.0
  0
VERTEX
  8
0
 10
412.34045174482
 20
82.962989193682
 42
0.0
  0
VERTEX
  8
0
 10
412.737748291968
 20
83.480756166412
 42
0.0
  0
VERTEX
  8
0
 10
412.987499334081
 20
84.083708570328
 42
0.0
  0
VERTEX
  8
0
 10
413.072684750379
 20
84.730756195525
 42
0.0
  0
VERTEX
  8
0
 10
412.987499295514
 20
85.377803815647
 42
0.0
  0
VERTEX
  8
0
 10
412.737748217461
 20
85.980756204674
 42
0.0
  0
VERTEX
  8
0
 10
412.340451639452
 20
86.498523153726
 42
0.0
  0
VERTEX
  8
0
 10
411.822684666721
 20
86.895819700871
 42
0.0
  0
VERTEX
  8
0
 10
411.219732262806
 20
87.145570742985
 42
0.0
  0
VERTEX
  8
0
 10
410.572684637608
 20
87.230756159281
 42
0.0
  0
VERTEX
  8
0
 10
409.925637017487
 20
87.145570704417
 42
0.0
  0
VERTEX
  8
0
 10
409.322684628459
 20
86.895819626365
 42
0.0
  0
VERTEX
  8
0
 10
408.804917679408
 20
86.498523048361
 42
0.0
  0
VERTEX
  8
0
 10
408.407621132266
 20
85.980756075626
 42
0.0
  0
VERTEX
  8
0
 10
408.157870090151
 20
85.37780367171
 42
0.0
  0
VERTEX
  8
0
 10
408.072684673854
 20
84.730756046513
 42
0.0
  0
VERTEX
  8
0
 10
408.157870128718
 20
84.083708426392
 42
0.0
  0
VERTEX
  8
0
 10
408.407621206773
 20
83.480756037364
 42
0.0
  0
SEQEND
  0
POLYLINE
  8
0
 66
     1
 10
0.0
 20
0.0
 30
0.0
 70
     1
  0
VERTEX
  8
0
 10
355.827586374514
 20
57.950000000648
 42
0.0
  0
VERTEX
  8
0
 10
355.430289817821
 20
58.467766953875
 42
0.0
  0
VERTEX
  8
0
 10
354.912522864594
 20
58.865063510567
 42
0.0
  0
VERTEX
  8
0
 10
354.309570477046
 20
59.114814566957
 42
0.0
  0
VERTEX
  8
0
 10
353.662522863963
 20
59.200000001278
 42
0.0
  0
VERTEX
  8
0
 10
353.015475250881
 20
59.114814566958
 42
0.0
  0
VERTEX
  8
0
 10
352.412522863334
 20
58.865063510569
 42
0.0
  0
VERTEX
  8
0
 10
351.894755910107
 20
58.467766953873
 42
0.0
  0
VERTEX
  8
0
 10
351.49745935341
 20
57.950000000646
 42
0.0
  0
VERTEX
  8
0
 10
351.247708297024
 20
57.347047613101
 42
0.0
  0
VERTEX
  8
0
 10
351.162522862703
 20
56.700000000018
 42
0.0
  0
VERTEX
  8
0
 10
351.247708297023
 20
56.052952386936
 42
0.0
  0
VERTEX
  8
0
 10
351.497459353409
 20
55.449999999386
 42
0.0
  0
VERTEX
  8
0
 10
351.894755910104
 20
54.932233046158
 42
0.0
  0
VERTEX
  8
0
 10
352.412522863332
 20
54.534936489465
 42
0.0
  0
VERTEX
  8
0
 10
353.01547525088
 20
54.285185433079
 42
0.0
  0
VERTEX
  8
0
 10
353.662522863962
 20
54.199999998758
 42
0.0
  0
VERTEX
  8
0
 10
354.309570477045
 20
54.285185433078
 42
0.0
  0
VERTEX
  8
0
 10
354.912522864592
 20
54.534936489463
 42
0.0
  0
VERTEX
  8
0
 10
355.430289817819
 20
54.93223304616
 42
0.0
  0
VERTEX
  8
0
 10
355.827586374513
 20
55.449999999388
 42
0.0
  0
VERTEX
  8
0
 10
356.077337430902
 20
56.052952386937
 42
0.0
  0
VERTEX
  8
0
 10
356.162522865223
 20
56.70000000002
 42
0.0
  0
VERTEX
  8
0
 10
356.077337430903
 20
57.347047613103
 42
0.0
  0
SEQEND
  0
POLYLINE
  8
0
 66
     1
 10
0.0
 20
0.0
 30
0.0
 70
     1
  0
VERTEX
  8
0
 10
241.087744321921
 20
180.358608399989
 42
0.0
  0
VERTEX
  8
0
 10
241.332124716099
 20
180.724349506197
 42
0.0
  0
VERTEX
  8
0
 10
241.62215319606
 20
181.055063604237
 42
0.0
  0
VERTEX
  8
0
 10
241.9528672941
 20
181.345092084197
 42
0.0
  0
VERTEX
  8
0
 10
242.318608400314
 20
181.589472478376
 42
0.0
  0
VERTEX
  8
0
 10
242.713118582967
 20
181.784023370474
 42
0.0
  0
VERTEX
  8
0
 10
243.129647663455
 20
181.925415940788
 42
0.0
  0
VERTEX
  8
0
 10
243.561068713729
 20
182.011230923234
 42
0.0
  0
VERTEX
  8
0
 10
244.000000000006
 20
182.039999999673
 42
0.0
  0
VERTEX
  8
0
 10
458.461510430354
 20
182.04151322505
 42
0.0
  0
VERTEX
  8
0
 10
459.723121241867
 20
181.958831391803
 42
0.0
  0
VERTEX
  8
0
 10
460.963146509117
 20
181.712182933747
 42
0.0
  0
VERTEX
  8
0
 10
462.160368866959
 20
181.30578811198
 42
0.0
  0
VERTEX
  8
0
 10
463.294303326426
 20
180.746600516525
 42
0.0
  0
VERTEX
  8
0
 10
464.345547781683
 20
180.044188087414
 42
0.0
  0
VERTEX
  8
0
 10
465.296114988396
 20
179.210569403123
 42
0.0
  0
VERTEX
  8
0
 10
466.129740333216
 20
178.260008037534
 42
0.0
  0
VERTEX
  8
0
 10
466.832160128298
 20
177.208768504052
 42
0.0
  0
VERTEX
  8
0
 10
467.391355669129
 20
176.074837962796
 42
0.0
  0
VERTEX
  8
0
 10
467.797758879729
 20
174.877618452559
 42
0.0
  0
VERTEX
  8
0
 10
468.044416026539
 20
173.637594913587
 42
0.0
  0
VERTEX
  8
0
 10
468.127106699792
 20
172.37598468145
 42
0.0
  0
VERTEX
  8
0
 10
468.127106699793
 20
73.192822375897
 42
0.0
  0
VERTEX
  8
0
 10
468.083606858245
 20
72.171177850709
 42
0.0
  0
VERTEX
  8
0
 10
467.953422207576
 20
71.156928508193
 42
0.0
  0
VERTEX
  8
0
 10
467.737495090501
 20
70.157416000931
 42
0.0
  0
VERTEX
  8
0
 10
467.437388497309
 20
69.179875308793
 42
0.0
  0
VERTEX
  8
0
 10
467.055274752155
 20
68.231382368478
 42
0.0
  0
VERTEX
  8
0
 10
466.593919788668
 20
67.318802854284
 42
0.0
  0
VERTEX
  8
0
 10
466.056663128711
 20
66.448742480864
 42
0.0
  0
VERTEX
  8
0
 10
465.447393709236
 20
65.627499187708
 42
0.0
  0
VERTEX
  8
0
 10
464.770521732169
 20
64.861017551447
 42
0.0
  0
VERTEX
  8
0
 10
464.030946741131
 20
64.154845755992
 42
0.0
  0
VERTEX
  8
0
 10
463.234022156052
 20
63.514095431952
 42
0.0
  0
VERTEX
  8
0
 10
462.385516522385
 20
62.943404656051
 42
0.0
  0
VERTEX
  8
0
 10
367.403754739053
 20
4.851513044216
 42
0.0
  0
VERTEX
  8
0
 10
365.158893488776
 20
3.988338262955
 42
0.0
  0
VERTEX
  8
0
 10
364.016114855517
 20
3.613401112335
 42
0.0
  0
VERTEX
  8
0
 10
362.861462701164
 20
3.276801537179
 42
0.0
  0
VERTEX
  8
0
 10
361.696222770166
 20
2.978914352565
 42
0.0
  0
VERTEX
  8
0
 10
360.521692596826
 20
2.720071266003
 42
0.0
  0
VERTEX
  8
0
 10
359.339180060442
 20
2.500560508077
 42
0.0
  0
VERTEX
  8
0
 10
358.15000192895
 20
2.320626511483
 42
0.0
  0
VERTEX
  8
0
 10
356.955482392651
 20
2.180469638846
 42
0.0
  0
VERTEX
  8
0
 10
355.75695158968
 20
2.080245959612
 42
0.0
  0
VERTEX
  8
0
 10
353.353197583554
 20
2.000000000016
 42
0.0
  0
VERTEX
  8
0
 10
244.0
 20
2.0
 42
0.0
  0
VERTEX
  8
0
 10
243.561068713724
 20
2.028769076441
 42
0.0
  0
VERTEX
  8
0
 10
243.12964766345
 20
2.114584058889
 42
0.0
  0
VERTEX
  8
0
 10
242.713118582963
 20
2.255976629198
 42
0.0
  0
VERTEX
  8
0
 10
242.31860840031
 20
2.450527521294
 42
0.0
  0
VERTEX
  8
0
 10
241.952867294099
 20
2.694907915475
 42
0.0
  0
VERTEX
  8
0
 10
241.622153196058
 20
2.984936395434
 42
0.0
  0
VERTEX
  8
0
 10
241.332124716097
 20
3.315650493476
 42
0.0
  0
VERTEX
  8
0
 10
241.087744321917
 20
3.681391599686
 42
0.0
  0
VERTEX
  8
0
 10
240.893193429819
 20
4.075901782337
 42
0.0
  0
VERTEX
  8
0
 10
240.751800859508
 20
4.492430862824
 42
0.0
  0
VERTEX
  8
0
 10
240.665985877061
 20
4.9238519131
 42
0.0
  0
VERTEX
  8
0
 10
240.63721680062
 20
5.362783199376
 42
0.0
  0
VERTEX
  8
0
 10
240.637216800624
 20
178.677216800299
 42
0.0
  0
VERTEX
  8
0
 10
240.665985877064
 20
179.116148086575
 42
0.0
  0
VERTEX
  8
0
 10
240.751800859512
 20
179.547569136849
 42
0.0
  0
VERTEX
  8
0
 10
240.893193429824
 20
179.964098217338
 42
0.0
  0
SEQEND
  0
POLYLINE
  8
0
 66
     1
 10
0.0
 20
0.0
 30
0.0
 70
     1
  0
VERTEX
  8
0
 10
351.247708297027
 20
127.98704761274
 42
0.0
  0
VERTEX
  8
0
 10
351.162522862707
 20
127.339999999661
 42
0.0
  0
VERTEX
  8
0
 10
351.247708297027
 20
126.692952386576
 42
0.0
  0
VERTEX
  8
0
 10
351.497459353415
 20
126.089999999028
 42
0.0
  0
VERTEX
  8
0
 10
351.89475591011
 20
125.5722330458
 42
0.0
  0
VERTEX
  8
0
 10
352.412522863336
 20
125.174936489106
 42
0.0
  0
VERTEX
  8
0
 10
353.015475250884
 20
124.92518543272
 42
0.0
  0
VERTEX
  8
0
 10
353.662522863967
 20
124.839999998399
 42
0.0
  0
VERTEX
  8
0
 10
354.309570477049
 20
124.925185432719
 42
0.0
  0
VERTEX
  8
0
 10
354.912522864596
 20
125.174936489104
 42
0.0
  0
VERTEX
  8
0
 10
355.430289817825
 20
125.572233045802
 42
0.0
  0
VERTEX
  8
0
 10
355.82758637452
 20
126.089999999029
 42
0.0
  0
VERTEX
  8
0
 10
356.077337430907
 20
126.69295238658
 42
0.0
  0
VERTEX
  8
0
 10
356.162522865227
 20
127.339999999663
 42
0.0
  0
VERTEX
  8
0
 10
356.077337430906
 20
127.987047612745
 42
0.0
  0
VERTEX
  8
0
 10
355.827586374519
 20
128.590000000289
 42
0.0
  0
VERTEX
  8
0
 10
355.430289817821
 20
129.107766953516
 42
0.0
  0
VERTEX
  8
0
 10
354.912522864596
 20
129.505063510209
 42
0.0
  0
VERTEX
  8
0
 10
354.309570477048
 20
129.754814566599
 42
0.0
  0
VERTEX
  8
0
 10
353.662522863965
 20
129.840000000919
 42
0.0
  0
VERTEX
  8
0
 10
353.015475250883
 20
129.7548145666
 42
0.0
  0
VERTEX
  8
0
 10
352.412522863337
 20
129.505063510211
 42
0.0
  0
VERTEX
  8
0
 10
351.894755910107
 20
129.107766953515
 42
0.0
  0
VERTEX
  8
0
 10
351.497459353414
 20
128.590000000288
 42
0.0
  0
SEQEND
  0
POLYLINE
  8
0
 66
     1
 10
0.0
 20
0.0
 30
0.0
 70
     1
  0
VERTEX
  8
0
 10
352.412522862071
 20
165.174936490272
 42
0.0
  0
VERTEX
  8
0
 10
353.015475249619
 20
164.925185433886
 42
0.0
  0
VERTEX
  8
0
 10
353.662522862702
 20
164.839999999565
 42
0.0
  0
VERTEX
  8
0
 10
354.309570475784
 20
164.925185433885
 42
0.0
  0
VERTEX
  8
0
 10
354.912522863331
 20
165.17493649027
 42
0.0
  0
VERTEX
  8
0
 10
355.430289816562
 20
165.572233046968
 42
0.0
  0
VERTEX
  8
0
 10
355.827586373257
 20
166.090000000195
 42
0.0
  0
VERTEX
  8
0
 10
356.077337429644
 20
166.692952387746
 42
0.0
  0
VERTEX
  8
0
 10
356.162522863964
 20
167.340000000828
 42
0.0
  0
VERTEX
  8
0
 10
356.077337429643
 20
167.987047613911
 42
0.0
  0
VERTEX
  8
0
 10
355.827586373256
 20
168.590000001455
 42
0.0
  0
VERTEX
  8
0
 10
355.430289816558
 20
169.107766954682
 42
0.0
  0
VERTEX
  8
0
 10
354.912522863334
 20
169.505063511375
 42
0.0
  0
VERTEX
  8
0
 10
354.309570475785
 20
169.754814567764
 42
0.0
  0
VERTEX
  8
0
 10
353.662522862702
 20
169.840000002085
 42
0.0
  0
VERTEX
  8
0
 10
353.01547524962
 20
169.754814567766
 42
0.0
  0
VERTEX
  8
0
 10
352.412522862074
 20
169.505063511377
 42
0.0
  0
VERTEX
  8
0
 10
351.894755908844
 20
169.107766954681
 42
0.0
  0
VERTEX
  8
0
 10
351.497459352151
 20
168.590000001453
 42
0.0
  0
VERTEX
  8
0
 10
351.247708295764
 20
167.987047613906
 42
0.0
  0
VERTEX
  8
0
 10
351.162522861444
 20
167.340000000827
 42
0.0
  0
VERTEX
  8
0
 10
351.247708295764
 20
166.692952387741
 42
0.0
  0
VERTEX
  8
0
 10
351.497459352152
 20
166.090000000193
 42
0.0
  0
VERTEX
  8
0
 10
351.894755908848
 20
165.572233046966
 42
0.0
  0
SEQEND
  0
POLYLINE
  8
0
 66
     1
 10
0.0
 20
0.0
 30
0.0
 70
     1
  0
VERTEX
  8
0
 10
448.236284722783
 20
125.734993499307
 42
0.0
  0
VERTEX
  8
0
 10
448.486042234482
 20
126.33793703767
 42
0.0
  0
VERTEX
  8
0
 10
448.883322539627
 20
126.855714610741
 42
0.0
  0
VERTEX
  8
0
 10
449.401100112697
 20
127.252994915885
 42
0.0
  0
VERTEX
  8
0
 10
450.004043651059
 20
127.502752427585
 42
0.0
  0
VERTEX
  8
0
 10
450.651106867834
 20
127.587943792808
 42
0.0
  0
VERTEX
  8
0
 10
451.298144684678
 20
127.502752427585
 42
0.0
  0
VERTEX
  8
0
 10
451.901088223041
 20
127.252994915885
 42
0.0
  0
VERTEX
  8
0
 10
452.418865796111
 20
126.85571461074
 42
0.0
  0
VERTEX
  8
0
 10
452.816146101256
 20
126.33793703767
 42
0.0
  0
VERTEX
  8
0
 10
453.065903612956
 20
125.734993499307
 42
0.0
  0
VERTEX
  8
0
 10
453.15109497818
 20
125.087955682463
 42
0.0
  0
VERTEX
  8
0
 10
453.151094978179
 20
104.087822047923
 42
0.0
  0
VERTEX
  8
0
 10
453.065903612955
 20
103.440784231079
 42
0.0
  0
VERTEX
  8
0
 10
452.816146101256
 20
102.837840692716
 42
0.0
  0
VERTEX
  8
0
 10
452.418865796111
 20
102.320063119645
 42
0.0
  0
VERTEX
  8
0
 10
451.901088223041
 20
101.922782814501
 42
0.0
  0
VERTEX
  8
0
 10
451.298144684678
 20
101.673025302801
 42
0.0
  0
VERTEX
  8
0
 10
450.651106867834
 20
101.587833937578
 42
0.0
  0
VERTEX
  8
0
 10
450.004043651059
 20
101.673025302801
 42
0.0
  0
VERTEX
  8
0
 10
449.401100112696
 20
101.922782814501
 42
0.0
  0
VERTEX
  8
0
 10
448.883322539627
 20
102.320063119646
 42
0.0
  0
VERTEX
  8
0
 10
448.486042234482
 20
102.837840692715
 42
0.0
  0
VERTEX
  8
0
 10
448.236284722782
 20
103.440784231078
 42
0.0
  0
VERTEX
  8
0
 10
448.151093357559
 20
104.087822047923
 42
0.0
  0
VERTEX
  8
0
 10
448.15109335756
 20
125.087955682463
 42
0.0
  0
SEQEND
  0
POLYLINE
  8
0
 66
     1
 10
0.0
 20
0.0
 30
0.0
 70
     1
  0
VERTEX
  8
0
 10
250.854116131964
 20
91.096404237287
 42
0.0
  0
VERTEX
  8
0
 10
251.210610789709
 20
90.235749999639
 42
0.0
  0
VERTEX
  8
0
 10
251.777711894514
 20
89.496689450891
 42
0.0
  0
VERTEX
  8
0
 10
252.516772443263
 20
88.929588346088
 42
0.0
  0
VERTEX
  8
0
 10
253.377426680912
 20
88.573093688339
 42
0.0
  0
VERTEX
  8
0
 10
254.301022443463
 20
88.45149999944
 42
0.0
  0
VERTEX
  8
0
 10
255.224618206015
 20
88.573093688344
 42
0.0
  0
VERTEX
  8
0
 10
256.085272443663
 20
88.929588346087
 42
0.0
  0
VERTEX
  8
0
 10
256.824332992409
 20
89.496689450892
 42
0.0
  0
VERTEX
  8
0
 10
257.391434097211
 20
90.235749999637
 42
0.0
  0
VERTEX
  8
0
 10
257.747928754961
 20
91.096404237285
 42
0.0
  0
VERTEX
  8
0
 10
257.869522443865
 20
92.019999999838
 42
0.0
  0
VERTEX
  8
0
 10
257.747928754963
 20
92.943595762389
 42
0.0
  0
VERTEX
  8
0
 10
257.391434097214
 20
93.804250000037
 42
0.0
  0
VERTEX
  8
0
 10
256.824332992408
 20
94.543310548786
 42
0.0
  0
VERTEX
  8
0
 10
256.085272443661
 20
95.110411653589
 42
0.0
  0
VERTEX
  8
0
 10
255.224618206014
 20
95.466906311342
 42
0.0
  0
VERTEX
  8
0
 10
254.301022443462
 20
95.58850000024
 42
0.0
  0
VERTEX
  8
0
 10
253.37742668091
 20
95.466906311337
 42
0.0
  0
VERTEX
  8
0
 10
252.516772443261
 20
95.110411653591
 42
0.0
  0
VERTEX
  8
0
 10
251.777711894514
 20
94.543310548785
 42
0.0
  0
VERTEX
  8
0
 10
251.210610789711
 20
93.804250000039
 42
0.0
  0
VERTEX
  8
0
 10
250.854116131964
 20
92.943595762391
 42
0.0
  0
VERTEX
  8
0
 10
250.732522443065
 20
92.019999999838
 42
0.0
  0
SEQEND
  0
POLYLINE
  8
0
 66
     1
 10
0.0
 20
0.0
 30
0.0
 70
     1
  0
VERTEX
  8
0
 10
432.410840724724
 20
171.90276792668
 42
0.0
  0
VERTEX
  8
0
 10
432.532127788626
 20
171.721249007906
 42
0.0
  0
VERTEX
  8
0
 10
432.6286842516
 20
171.52545187003
 42
0.0
  0
VERTEX
  8
0
 10
432.698858005794
 20
171.318726656364
 42
0.0
  0
VERTEX
  8
0
 10
432.741448358816
 20
171.10461049263
 42
0.0
  0
VERTEX
  8
0
 10
432.75572657792
 20
159.508964022366
 42
0.0
  0
VERTEX
  8
0
 10
432.698858005794
 20
159.077004331755
 42
0.0
  0
VERTEX
  8
0
 10
432.6286842516
 20
158.87027911809
 42
0.0
  0
VERTEX
  8
0
 10
432.532127788627
 20
158.674481980213
 42
0.0
  0
VERTEX
  8
0
 10
432.410840724724
 20
158.492963061439
 42
0.0
  0
VERTEX
  8
0
 10
432.266898315184
 20
158.328828200796
 42
0.0
  0
VERTEX
  8
0
 10
432.102763454541
 20
158.184885791256
 42
0.0
  0
VERTEX
  8
0
 10
431.921244535768
 20
158.063598727353
 42
0.0
  0
VERTEX
  8
0
 10
431.725447397892
 20
157.96704226438
 42
0.0
  0
VERTEX
  8
0
 10
431.518722184226
 20
157.896868510186
 42
0.0
  0
VERTEX
  8
0
 10
431.131243790591
 20
157.845856011903
 42
0.0
  0
VERTEX
  8
0
 10
418.273094905419
 20
157.839999938059
 42
0.0
  0
VERTEX
  8
0
 10
417.841135214809
 20
157.896868510185
 42
0.0
  0
VERTEX
  8
0
 10
417.634410001143
 20
157.967042264378
 42
0.0
  0
VERTEX
  8
0
 10
417.438612863267
 20
158.063598727352
 42
0.0
  0
VERTEX
  8
0
 10
417.257093944493
 20
158.184885791255
 42
0.0
  0
VERTEX
  8
0
 10
417.09295908385
 20
158.328828200795
 42
0.0
  0
VERTEX
  8
0
 10
416.949016674309
 20
158.492963061438
 42
0.0
  0
VERTEX
  8
0
 10
416.827729610407
 20
158.674481980211
 42
0.0
  0
VERTEX
  8
0
 10
416.731173147433
 20
158.870279118088
 42
0.0
  0
VERTEX
  8
0
 10
416.66099939324
 20
159.077004331754
 42
0.0
  0
VERTEX
  8
0
 10
416.604130821114
 20
159.508964022364
 42
0.0
  0
VERTEX
  8
0
 10
416.605690472286
 20
161.978942861931
 42
0.0
  0
VERTEX
  8
0
 10
415.39243688904
 20
162.948921701497
 42
0.0
  0
VERTEX
  8
0
 10
414.745423519186
 20
163.03436723644
 42
0.0
  0
VERTEX
  8
0
 10
414.142571527052
 20
163.284360667937
 42
0.0
  0
VERTEX
  8
0
 10
413.624964279642
 20
163.681865356764
 42
0.0
  0
VERTEX
  8
0
 10
413.22787585548
 20
164.199792015287
 42
0.0
  0
VERTEX
  8
0
 10
412.978367174452
 20
164.80284479764
 42
0.0
  0
VERTEX
  8
0
 10
412.893441840842
 20
165.449926653299
 42
0.0
  0
VERTEX
  8
0
 10
412.978887375786
 20
166.096940023153
 42
0.0
  0
VERTEX
  8
0
 10
413.228880807282
 20
166.699792015287
 42
0.0
  0
VERTEX
  8
0
 10
413.626385496109
 20
167.217399262697
 42
0.0
  0
VERTEX
  8
0
 10
414.144312154632
 20
167.614487686859
 42
0.0
  0
VERTEX
  8
0
 10
414.747364936985
 20
167.863996367886
 42
0.0
  0
VERTEX
  8
0
 10
415.394446792644
 20
167.948921701497
 42
0.0
  0
VERTEX
  8
0
 10
416.614839485441
 20
168.918900541064
 42
0.0
  0
VERTEX
  8
0
 10
416.618409040217
 20
171.104610492628
 42
0.0
  0
VERTEX
  8
0
 10
416.66099939324
 20
171.318726656362
 42
0.0
  0
VERTEX
  8
0
 10
416.731173147433
 20
171.525451870028
 42
0.0
  0
VERTEX
  8
0
 10
416.827729610406
 20
171.721249007905
 42
0.0
  0
VERTEX
  8
0
 10
416.949016674309
 20
171.902767926678
 42
0.0
  0
VERTEX
  8
0
 10
417.09295908385
 20
172.066902787321
 42
0.0
  0
VERTEX
  8
0
 10
417.257093944493
 20
172.210845196862
 42
0.0
  0
VERTEX
  8
0
 10
417.438612863266
 20
172.332132260764
 42
0.0
  0
VERTEX
  8
0
 10
417.634410001143
 20
172.428688723738
 42
0.0
  0
VERTEX
  8
0
 10
417.841135214809
 20
172.498862477931
 42
0.0
  0
VERTEX
  8
0
 10
418.055251378542
 20
172.541452830954
 42
0.0
  0
VERTEX
  8
0
 10
431.304606020491
 20
172.541452830955
 42
0.0
  0
VERTEX
  8
0
 10
431.518722184225
 20
172.498862477933
 42
0.0
  0
VERTEX
  8
0
 10
431.725447397891
 20
172.42868872374
 42
0.0
  0
VERTEX
  8
0
 10
431.921244535767
 20
172.332132260765
 42
0.0
  0
VERTEX
  8
0
 10
432.102763454541
 20
172.210845196863
 42
0.0
  0
VERTEX
  8
0
 10
432.266898315184
 20
172.066902787322
 42
0.0
  0
SEQEND
  0
POLYLINE
  8
0
 66
     1
 10
0.0
 20
0.0
 30
0.0
 70
     1
  0
VERTEX
  8
0
 10
352.042928714592
 20
69.658066726539
 42
0.0
  0
VERTEX
  8
0
 10
351.639298426947
 20
70.184099276859
 42
0.0
  0
VERTEX
  8
0
 10
351.113240476696
 20
70.587754964434
 42
0.0
  0
VERTEX
  8
0
 10
350.500644964933
 20
70.841500265144
 42
0.0
  0
VERTEX
  8
0
 10
349.843243976648
 20
70.928063226587
 42
0.0
  0
VERTEX
  8
0
 10
340.843267755959
 20
70.928063226588
 42
0.0
  0
VERTEX
  8
0
 10
340.185866767674
 20
70.841500265145
 42
0.0
  0
VERTEX
  8
0
 10
339.573271255911
 20
70.587754964434
 42
0.0
  0
VERTEX
  8
0
 10
339.047213305661
 20
70.184099276859
 42
0.0
  0
VERTEX
  8
0
 10
338.643557618085
 20
69.658066726539
 42
0.0
  0
VERTEX
  8
0
 10
338.389812317376
 20
69.045471214776
 42
0.0
  0
VERTEX
  8
0
 10
338.303274755863
 20
68.38807022649
 42
0.0
  0
VERTEX
  8
0
 10
338.389812317376
 20
67.730669238206
 42
0.0
  0
VERTEX
  8
0
 10
338.643557618086
 20
67.118073726442
 42
0.0
  0
VERTEX
  8
0
 10
339.047213305661
 20
66.592015776193
 42
0.0
  0
VERTEX
  8
0
 10
339.57327125591
 20
66.188360088618
 42
0.0
  0
VERTEX
  8
0
 10
340.185866767673
 20
65.934614787909
 42
0.0
  0
VERTEX
  8
0
 10
340.843267755958
 20
65.848077226395
 42
0.0
  0
VERTEX
  8
0
 10
349.843243976647
 20
65.848077226394
 42
0.0
  0
VERTEX
  8
0
 10
350.500644964932
 20
65.934614787908
 42
0.0
  0
VERTEX
  8
0
 10
351.113240476695
 20
66.188360088618
 42
0.0
  0
VERTEX
  8
0
 10
351.639298426947
 20
66.592015776193
 42
0.0
  0
VERTEX
  8
0
 10
352.042928714592
 20
67.118073726442
 42
0.0
  0
VERTEX
  8
0
 10
352.296699415231
 20
67.730669238206
 42
0.0
  0
VERTEX
  8
0
 10
352.383236976745
 20
68.388070226491
 42
0.0
  0
VERTEX
  8
0
 10
352.296699415231
 20
69.045471214776
 42
0.0
  0
SEQEND
  0
POLYLINE
  8
0
 66
     1
 10
0.0
 20
0.0
 30
0.0
 70
     1
  0
VERTEX
  8
0
 10
399.286798516384
 20
116.90193652833
 42
0.0
  0
VERTEX
  8
0
 10
398.883168228738
 20
117.427969078649
 42
0.0
  0
VERTEX
  8
0
 10
398.357110278487
 20
117.831624766225
 42
0.0
  0
VERTEX
  8
0
 10
397.744514766724
 20
118.085370066935
 42
0.0
  0
VERTEX
  8
0
 10
397.087113778439
 20
118.17193302838
 42
0.0
  0
VERTEX
  8
0
 10
388.08713755775
 20
118.171933028378
 42
0.0
  0
VERTEX
  8
0
 10
387.429736569465
 20
118.085370066936
 42
0.0
  0
VERTEX
  8
0
 10
386.817141057702
 20
117.831624766226
 42
0.0
  0
VERTEX
  8
0
 10
386.291083107452
 20
117.42796907865
 42
0.0
  0
VERTEX
  8
0
 10
385.887427419877
 20
116.90193652833
 42
0.0
  0
VERTEX
  8
0
 10
385.633682119168
 20
116.289341016567
 42
0.0
  0
VERTEX
  8
0
 10
385.547144557652
 20
115.631940028282
 42
0.0
  0
VERTEX
  8
0
 10
385.633682119167
 20
114.974539039997
 42
0.0
  0
VERTEX
  8
0
 10
385.887427419876
 20
114.361943528234
 42
0.0
  0
VERTEX
  8
0
 10
386.291083107452
 20
113.835885577985
 42
0.0
  0
VERTEX
  8
0
 10
386.817141057702
 20
113.432229890409
 42
0.0
  0
VERTEX
  8
0
 10
387.429736569465
 20
113.1784845897
 42
0.0
  0
VERTEX
  8
0
 10
388.08713755775
 20
113.091947028186
 42
0.0
  0
VERTEX
  8
0
 10
397.087113778439
 20
113.091947028187
 42
0.0
  0
VERTEX
  8
0
 10
397.744514766724
 20
113.178484589699
 42
0.0
  0
VERTEX
  8
0
 10
398.357110278488
 20
113.432229890409
 42
0.0
  0
VERTEX
  8
0
 10
398.883168228738
 20
113.835885577984
 42
0.0
  0
VERTEX
  8
0
 10
399.286798516383
 20
114.361943528234
 42
0.0
  0
VERTEX
  8
0
 10
399.540569217023
 20
114.974539039997
 42
0.0
  0
VERTEX
  8
0
 10
399.627106778535
 20
115.631940028283
 42
0.0
  0
VERTEX
  8
0
 10
399.540569217023
 20
116.289341016568
 42
0.0
  0
SEQEND
  0
POLYLINE
  8
0
 66
     1
 10
0.0
 20
0.0
 30
0.0
 70
     1
  0
VERTEX
  8
0
 10
352.042928714592
 20
116.90193652833
 42
0.0
  0
VERTEX
  8
0
 10
351.639298426946
 20
117.427969078649
 42
0.0
  0
VERTEX
  8
0
 10
351.113240476696
 20
117.831624766225
 42
0.0
  0
VERTEX
  8
0
 10
350.500644964933
 20
118.085370066936
 42
0.0
  0
VERTEX
  8
0
 10
349.843243976648
 20
118.171933028379
 42
0.0
  0
VERTEX
  8
0
 10
340.843267755959
 20
118.171933028379
 42
0.0
  0
VERTEX
  8
0
 10
340.185866767674
 20
118.085370066937
 42
0.0
  0
VERTEX
  8
0
 10
339.57327125591
 20
117.831624766226
 42
0.0
  0
VERTEX
  8
0
 10
339.047213305661
 20
117.42796907865
 42
0.0
  0
VERTEX
  8
0
 10
338.643557618086
 20
116.90193652833
 42
0.0
  0
VERTEX
  8
0
 10
338.389812317376
 20
116.289341016567
 42
0.0
  0
VERTEX
  8
0
 10
338.303274755861
 20
115.631940028282
 42
0.0
  0
VERTEX
  8
0
 10
338.389812317375
 20
114.974539039997
 42
0.0
  0
VERTEX
  8
0
 10
338.643557618085
 20
114.361943528234
 42
0.0
  0
VERTEX
  8
0
 10
339.047213305661
 20
113.835885577984
 42
0.0
  0
VERTEX
  8
0
 10
339.573271255911
 20
113.432229890409
 42
0.0
  0
VERTEX
  8
0
 10
340.185866767674
 20
113.1784845897
 42
0.0
  0
VERTEX
  8
0
 10
340.843267755959
 20
113.091947028186
 42
0.0
  0
VERTEX
  8
0
 10
349.843243976648
 20
113.091947028186
 42
0.0
  0
VERTEX
  8
0
 10
350.500644964933
 20
113.1784845897
 42
0.0
  0
VERTEX
  8
0
 10
351.113240476696
 20
113.432229890408
 42
0.0
  0
VERTEX
  8
0
 10
351.639298426947
 20
113.835885577984
 42
0.0
  0
VERTEX
  8
0
 10
352.042928714592
 20
114.361943528234
 42
0.0
  0
VERTEX
  8
0
 10
352.296699415232
 20
114.974539039997
 42
0.0
  0
VERTEX
  8
0
 10
352.383236976743
 20
115.631940028282
 42
0.0
  0
VERTEX
  8
0
 10
352.296699415232
 20
116.289341016567
 42
0.0
  0
SEQEND
  0
POLYLINE
  8
0
 66
     1
 10
0.0
 20
0.0
 30
0.0
 70
     1
  0
VERTEX
  8
0
 10
404.451899962135
 20
164.089999963262
 42
0.0
  0
VERTEX
  8
0
 10
404.849196540139
 20
163.572233014211
 42
0.0
  0
VERTEX
  8
0
 10
405.366963512871
 20
163.174936467067
 42
0.0
  0
VERTEX
  8
0
 10
405.969915916786
 20
162.925185424951
 42
0.0
  0
VERTEX
  8
0
 10
406.616963541984
 20
162.840000008659
 42
0.0
  0
VERTEX
  8
0
 10
407.264011162104
 20
162.925185463519
 42
0.0
  0
VERTEX
  8
0
 10
407.866963551133
 20
163.174936541573
 42
0.0
  0
VERTEX
  8
0
 10
408.384730500183
 20
163.572233119578
 42
0.0
  0
VERTEX
  8
0
 10
408.78202704733
 20
164.09000009231
 42
0.0
  0
VERTEX
  8
0
 10
409.031778089443
 20
164.692952496226
 42
0.0
  0
VERTEX
  8
0
 10
409.116963505742
 20
165.340000121424
 42
0.0
  0
VERTEX
  8
0
 10
409.031778050878
 20
165.987047741545
 42
0.0
  0
VERTEX
  8
0
 10
408.782026972824
 20
166.590000130573
 42
0.0
  0
VERTEX
  8
0
 10
408.384730394816
 20
167.107767079622
 42
0.0
  0
VERTEX
  8
0
 10
407.866963422084
 20
167.505063626768
 42
0.0
  0
VERTEX
  8
0
 10
407.264011018169
 20
167.754814668882
 42
0.0
  0
VERTEX
  8
0
 10
406.61696339297
 20
167.840000085183
 42
0.0
  0
VERTEX
  8
0
 10
405.96991577285
 20
167.754814630314
 42
0.0
  0
VERTEX
  8
0
 10
405.366963383822
 20
167.505063552261
 42
0.0
  0
VERTEX
  8
0
 10
404.849196434772
 20
167.107766974255
 42
0.0
  0
VERTEX
  8
0
 10
404.451899887629
 20
166.590000001524
 42
0.0
  0
VERTEX
  8
0
 10
404.202148845515
 20
165.987047597608
 42
0.0
  0
VERTEX
  8
0
 10
404.116963429218
 20
165.339999972411
 42
0.0
  0
VERTEX
  8
0
 10
404.20214888408
 20
164.692952352289
 42
0.0
  0
SEQEND
  0
POLYLINE
  8
0
 66
     1
 10
0.0
 20
0.0
 30
0.0
 70
     1
  0
VERTEX
  8
0
 10
394.738574974812
 20
101.860069627588
 42
0.0
  0
VERTEX
  8
0
 10
391.460878403275
 20
106.131646989973
 42
0.0
  0
VERTEX
  8
0
 10
387.189301066773
 20
109.409343581381
 42
0.0
  0
VERTEX
  8
0
 10
382.214943901674
 20
111.469789795738
 42
0.0
  0
VERTEX
  8
0
 10
376.876801128266
 20
112.172569628589
 42
0.0
  0
VERTEX
  8
0
 10
360.376800736518
 20
112.172569138862
 42
0.0
  0
VERTEX
  8
0
 10
355.038657963111
 20
111.469789306006
 42
0.0
  0
VERTEX
  8
0
 10
350.064300798012
 20
109.409343091648
 42
0.0
  0
VERTEX
  8
0
 10
345.792723461512
 20
106.131646500244
 42
0.0
  0
VERTEX
  8
0
 10
342.515026889976
 20
101.860069137853
 42
0.0
  0
VERTEX
  8
0
 10
340.454580688107
 20
96.885711942609
 42
0.0
  0
VERTEX
  8
0
 10
339.751800859512
 20
91.547569136849
 42
0.0
  0
VERTEX
  8
0
 10
340.454580688107
 20
86.209426331089
 42
0.0
  0
VERTEX
  8
0
 10
342.515026889981
 20
81.235069135842
 42
0.0
  0
VERTEX
  8
0
 10
345.792723461518
 20
76.963491773452
 42
0.0
  0
VERTEX
  8
0
 10
350.064300798019
 20
73.685795182054
 42
0.0
  0
VERTEX
  8
0
 10
355.038657963119
 20
71.625348967692
 42
0.0
  0
VERTEX
  8
0
 10
360.376800736527
 20
70.922569134839
 42
0.0
  0
VERTEX
  8
0
 10
376.876801128275
 20
70.922569624565
 42
0.0
  0
VERTEX
  8
0
 10
382.214943901682
 20
71.625349457425
 42
0.0
  0
VERTEX
  8
0
 10
387.189301066779
 20
73.685795671788
 42
0.0
  0
VERTEX
  8
0
 10
391.460878403281
 20
76.963492263181
 42
0.0
  0
VERTEX
  8
0
 10
394.738574974817
 20
81.235069625575
 42
0.0
  0
VERTEX
  8
0
 10
396.799021176686
 20
86.209426820824
 42
0.0
  0
VERTEX
  8
0
 10
397.501801005284
 20
91.547569626583
 42
0.0
  0
VERTEX
  8
0
 10
396.799021176686
 20
96.885712432346
 42
0.0
  0
SEQEND
  0
POLYLINE
  8
0
 66
     1
 10
0.0
 20
0.0
 30
0.0
 70
     1
  0
VERTEX
  8
0
 10
428.854105534898
 20
82.962989088317
 42
0.0
  0
VERTEX
  8
0
 10
429.371872507628
 20
82.56569254117
 42
0.0
  0
VERTEX
  8
0
 10
429.974824911544
 20
82.315941499053
 42
0.0
  0
VERTEX
  8
0
 10
430.621872536742
 20
82.230756082756
 42
0.0
  0
VERTEX
  8
0
 10
431.268920156863
 20
82.315941537622
 42
0.0
  0
VERTEX
  8
0
 10
431.871872545891
 20
82.565692615675
 42
0.0
  0
VERTEX
  8
0
 10
432.389639494942
 20
82.962989193683
 42
0.0
  0
VERTEX
  8
0
 10
432.78693604209
 20
83.480756166412
 42
0.0
  0
VERTEX
  8
0
 10
433.036687084203
 20
84.083708570328
 42
0.0
  0
VERTEX
  8
0
 10
433.121872500501
 20
84.730756195525
 42
0.0
  0
VERTEX
  8
0
 10
433.036687045636
 20
85.377803815647
 42
0.0
  0
VERTEX
  8
0
 10
432.786935967583
 20
85.980756204675
 42
0.0
  0
VERTEX
  8
0
 10
432.389639389575
 20
86.498523153726
 42
0.0
  0
VERTEX
  8
0
 10
431.871872416843
 20
86.89581970087
 42
0.0
  0
VERTEX
  8
0
 10
431.268920012928
 20
87.145570742984
 42
0.0
  0
VERTEX
  8
0
 10
430.62187238773
 20
87.23075615928
 42
0.0
  0
VERTEX
  8
0
 10
429.974824767609
 20
87.145570704417
 42
0.0
  0
VERTEX
  8
0
 10
429.371872378581
 20
86.895819626364
 42
0.0
  0
VERTEX
  8
0
 10
428.854105429531
 20
86.498523048361
 42
0.0
  0
VERTEX
  8
0
 10
428.456808882388
 20
85.980756075626
 42
0.0
  0
VERTEX
  8
0
 10
428.207057840273
 20
85.37780367171
 42
0.0
  0
VERTEX
  8
0
 10
428.121872423976
 20
84.730756046513
 42
0.0
  0
VERTEX
  8
0
 10
428.20705787884
 20
84.083708426393
 42
0.0
  0
VERTEX
  8
0
 10
428.456808956895
 20
83.480756037364
 42
0.0
  0
SEQEND
  0
POLYLINE
  8
0
 66
     1
 10
0.0
 20
0.0
 30
0.0
 70
     1
  0
VERTEX
  8
0
 10
399.286798516383
 20
69.658066726538
 42
0.0
  0
VERTEX
  8
0
 10
398.883168228738
 20
70.184099276859
 42
0.0
  0
VERTEX
  8
0
 10
398.357110278488
 20
70.587754964434
 42
0.0
  0
VERTEX
  8
0
 10
397.744514766724
 20
70.841500265144
 42
0.0
  0
VERTEX
  8
0
 10
397.087113778439
 20
70.928063226588
 42
0.0
  0
VERTEX
  8
0
 10
388.08713755775
 20
70.928063226587
 42
0.0
  0
VERTEX
  8
0
 10
387.429736569465
 20
70.841500265145
 42
0.0
  0
VERTEX
  8
0
 10
386.817141057702
 20
70.587754964435
 42
0.0
  0
VERTEX
  8
0
 10
386.291083107452
 20
70.18409927686
 42
0.0
  0
VERTEX
  8
0
 10
385.887427419877
 20
69.658066726539
 42
0.0
  0
VERTEX
  8
0
 10
385.633682119167
 20
69.045471214776
 42
0.0
  0
VERTEX
  8
0
 10
385.547144557654
 20
68.388070226491
 42
0.0
  0
VERTEX
  8
0
 10
385.633682119167
 20
67.730669238206
 42
0.0
  0
VERTEX
  8
0
 10
385.887427419877
 20
67.118073726442
 42
0.0
  0
VERTEX
  8
0
 10
386.291083107453
 20
66.592015776193
 42
0.0
  0
VERTEX
  8
0
 10
386.817141057701
 20
66.188360088618
 42
0.0
  0
VERTEX
  8
0
 10
387.429736569464
 20
65.934614787909
 42
0.0
  0
VERTEX
  8
0
 10
388.087137557748
 20
65.848077226394
 42
0.0
  0
VERTEX
  8
0
 10
397.087113778438
 20
65.848077226395
 42
0.0
  0
VERTEX
  8
0
 10
397.744514766723
 20
65.934614787908
 42
0.0
  0
VERTEX
  8
0
 10
398.357110278486
 20
66.188360088618
 42
0.0
  0
VERTEX
  8
0
 10
398.883168228738
 20
66.592015776193
 42
0.0
  0
VERTEX
  8
0
 10
399.286798516384
 20
67.118073726442
 42
0.0
  0
VERTEX
  8
0
 10
399.540569217022
 20
67.730669238206
 42
0.0
  0
VERTEX
  8
0
 10
399.627106778536
 20
68.388070226491
 42
0.0
  0
VERTEX
  8
0
 10
399.540569217023
 20
69.045471214776
 42
0.0
  0
SEQEND
  0
POLYLINE
  8
0
 66
     1
 10
0.0
 20
0.0
 30
0.0
 70
     1
  0
VERTEX
  8
0
 10
209.895740243171
 20
83.4519869609219
 42
0.0
  0
VERTEX
  8
0
 10
210.293036821174
 20
82.9342200118759
 42
0.0
  0
VERTEX
  8
0
 10
210.810803793906
 20
82.53692346473
 42
0.0
  0
VERTEX
  8
0
 10
211.413756197822
 20
82.287172422613
 42
0.0
  0
VERTEX
  8
0
 10
212.060803823019
 20
82.2019870063149
 42
0.0
  0
VERTEX
  8
0
 10
212.70785144314
 20
82.2871724611809
 42
0.0
  0
VERTEX
  8
0
 10
213.310803832168
 20
82.536923539234
 42
0.0
  0
VERTEX
  8
0
 10
213.828570781218
 20
82.934220117242
 42
0.0
  0
VERTEX
  8
0
 10
214.225867328366
 20
83.4519870899709
 42
0.0
  0
VERTEX
  8
0
 10
214.475618370479
 20
84.0549394938882
 42
0.0
  0
VERTEX
  8
0
 10
214.560803786777
 20
84.7019871190851
 42
0.0
  0
VERTEX
  8
0
 10
214.475618331912
 20
85.349034739207
 42
0.0
  0
VERTEX
  8
0
 10
214.225867253859
 20
85.9519871282338
 42
0.0
  0
VERTEX
  8
0
 10
213.828570675851
 20
86.4697540772847
 42
0.0
  0
VERTEX
  8
0
 10
213.310803703119
 20
86.8670506244296
 42
0.0
  0
VERTEX
  8
0
 10
212.707851299204
 20
87.1168016665436
 42
0.0
  0
VERTEX
  8
0
 10
212.060803674006
 20
87.2019870828395
 42
0.0
  0
VERTEX
  8
0
 10
211.413756053885
 20
87.1168016279761
 42
0.0
  0
VERTEX
  8
0
 10
210.810803664856
 20
86.8670505499236
 42
0.0
  0
VERTEX
  8
0
 10
210.293036715807
 20
86.4697539719207
 42
0.0
  0
VERTEX
  8
0
 10
209.895740168665
 20
85.9519869991844
 42
0.0
  0
VERTEX
  8
0
 10
209.645989126549
 20
85.3490345952686
 42
0.0
  0
VERTEX
  8
0
 10
209.560803710252
 20
84.7019869700717
 42
0.0
  0
VERTEX
  8
0
 10
209.645989165116
 20
84.0549393499513
 42
0.0
  0
SEQEND
  0
POLYLINE
  8
0
 66
     1
 10
0.0
 20
0.0
 30
0.0
 70
     1
  0
VERTEX
  8
0
 10
222.262591573624
 20
130.406101563112
 42
0.0
  0
VERTEX
  8
0
 10
222.118649164084
 20
130.570236423754
 42
0.0
  0
VERTEX
  8
0
 10
221.954514303441
 20
130.714178833296
 42
0.0
  0
VERTEX
  8
0
 10
221.772995384668
 20
130.835465897198
 42
0.0
  0
VERTEX
  8
0
 10
221.577198246791
 20
130.932022360172
 42
0.0
  0
VERTEX
  8
0
 10
221.370473033126
 20
131.002196114365
 42
0.0
  0
VERTEX
  8
0
 10
221.156356869392
 20
131.044786467387
 42
0.0
  0
VERTEX
  8
0
 10
219.038067157817
 20
131.044786467387
 42
0.0
  0
VERTEX
  8
0
 10
218.823950994083
 20
131.002196114365
 42
0.0
  0
VERTEX
  8
0
 10
218.617225780418
 20
130.932022360172
 42
0.0
  0
VERTEX
  8
0
 10
218.421428642541
 20
130.835465897198
 42
0.0
  0
VERTEX
  8
0
 10
218.239909723768
 20
130.714178833295
 42
0.0
  0
VERTEX
  8
0
 10
218.075774863125
 20
130.570236423754
 42
0.0
  0
VERTEX
  8
0
 10
217.931832453584
 20
130.406101563111
 42
0.0
  0
VERTEX
  8
0
 10
217.810545389681
 20
130.224582644338
 42
0.0
  0
VERTEX
  8
0
 10
217.713988926707
 20
130.028785506462
 42
0.0
  0
VERTEX
  8
0
 10
217.643815172515
 20
129.822060292796
 42
0.0
  0
VERTEX
  8
0
 10
217.601224819492
 20
129.607944129062
 42
0.0
  0
VERTEX
  8
0
 10
217.597655264716
 20
128.637965289495
 42
0.0
  0
VERTEX
  8
0
 10
217.586946600389
 20
120.728028770796
 42
0.0
  0
VERTEX
  8
0
 10
217.643815172515
 20
120.296069080185
 42
0.0
  0
VERTEX
  8
0
 10
217.713988926708
 20
120.089343866519
 42
0.0
  0
VERTEX
  8
0
 10
217.810545389682
 20
119.893546728643
 42
0.0
  0
VERTEX
  8
0
 10
217.931832453585
 20
119.712027809869
 42
0.0
  0
VERTEX
  8
0
 10
218.075774863125
 20
119.547892949227
 42
0.0
  0
VERTEX
  8
0
 10
218.239909723768
 20
119.403950539686
 42
0.0
  0
VERTEX
  8
0
 10
218.421428642541
 20
119.282663475783
 42
0.0
  0
VERTEX
  8
0
 10
218.617225780418
 20
119.18610701281
 42
0.0
  0
VERTEX
  8
0
 10
218.823950994083
 20
119.115933258617
 42
0.0
  0
VERTEX
  8
0
 10
219.255910684694
 20
119.059064686491
 42
0.0
  0
VERTEX
  8
0
 10
221.156356869392
 20
119.073342905594
 42
0.0
  0
VERTEX
  8
0
 10
221.370473033126
 20
119.115933258617
 42
0.0
  0
VERTEX
  8
0
 10
221.577198246791
 20
119.18610701281
 42
0.0
  0
VERTEX
  8
0
 10
221.772995384668
 20
119.282663475784
 42
0.0
  0
VERTEX
  8
0
 10
221.954514303441
 20
119.403950539687
 42
0.0
  0
VERTEX
  8
0
 10
222.118649164084
 20
119.547892949227
 42
0.0
  0
VERTEX
  8
0
 10
222.262591573625
 20
119.71202780987
 42
0.0
  0
VERTEX
  8
0
 10
222.383878637527
 20
119.893546728644
 42
0.0
  0
VERTEX
  8
0
 10
222.480435100501
 20
120.08934386652
 42
0.0
  0
VERTEX
  8
0
 10
222.550608854694
 20
120.296069080185
 42
0.0
  0
VERTEX
  8
0
 10
222.593199207717
 20
120.51018524392
 42
0.0
  0
VERTEX
  8
0
 10
222.593199207717
 20
129.607944129063
 42
0.0
  0
VERTEX
  8
0
 10
222.550608854694
 20
129.822060292796
 42
0.0
  0
VERTEX
  8
0
 10
222.4804351005
 20
130.028785506462
 42
0.0
  0
VERTEX
  8
0
 10
222.383878637526
 20
130.224582644339
 42
0.0
  0
SEQEND
  0
POLYLINE
  8
0
 66
     1
 10
0.0
 20
0.0
 30
0.0
 70
     1
  0
VERTEX
  8
0
 10
204.741248669819
 20
140.239617480492
 42
0.0
  0
VERTEX
  8
0
 10
205.011719988245
 20
139.931204051125
 42
0.0
  0
VERTEX
  8
0
 10
205.320133417612
 20
139.660732732699
 42
0.0
  0
VERTEX
  8
0
 10
205.661211918637
 20
139.432831364461
 42
0.0
  0
VERTEX
  8
0
 10
206.0291195436
 20
139.251399402009
 42
0.0
  0
VERTEX
  8
0
 10
206.417561291035
 20
139.119541196522
 42
0.0
  0
VERTEX
  8
0
 10
206.819890814948
 20
139.039512878453
 42
0.0
  0
VERTEX
  8
0
 10
207.229224145638
 20
139.012683754514
 42
0.0
  0
VERTEX
  8
0
 10
216.930013532066
 20
139.012683754514
 42
0.0
  0
VERTEX
  8
0
 10
217.339346862756
 20
139.039512878453
 42
0.0
  0
VERTEX
  8
0
 10
217.741676386669
 20
139.119541196522
 42
0.0
  0
VERTEX
  8
0
 10
218.130118134104
 20
139.251399402009
 42
0.0
  0
VERTEX
  8
0
 10
218.498025759067
 20
139.432831364461
 42
0.0
  0
VERTEX
  8
0
 10
218.839104260091
 20
139.660732732699
 42
0.0
  0
VERTEX
  8
0
 10
219.147517689458
 20
139.931204051125
 42
0.0
  0
VERTEX
  8
0
 10
219.417989007882
 20
140.239617480492
 42
0.0
  0
VERTEX
  8
0
 10
219.645890376122
 20
140.580695981515
 42
0.0
  0
VERTEX
  8
0
 10
219.827322338574
 20
140.948603606478
 42
0.0
  0
VERTEX
  8
0
 10
219.959180544062
 20
141.337045353913
 42
0.0
  0
VERTEX
  8
0
 10
220.039208862129
 20
141.739374877826
 42
0.0
  0
VERTEX
  8
0
 10
220.066037986068
 20
142.148708208516
 42
0.0
  0
VERTEX
  8
0
 10
220.066037986069
 20
165.863567887812
 42
0.0
  0
VERTEX
  8
0
 10
220.009153878087
 20
166.731451663522
 42
0.0
  0
VERTEX
  8
0
 10
219.839474857002
 20
167.584485707208
 42
0.0
  0
VERTEX
  8
0
 10
219.559904177908
 20
168.408074369875
 42
0.0
  0
VERTEX
  8
0
 10
219.175225372636
 20
169.188125821163
 42
0.0
  0
VERTEX
  8
0
 10
218.692020402198
 20
169.91129316447
 42
0.0
  0
VERTEX
  8
0
 10
218.118557037606
 20
170.565202806052
 42
0.0
  0
VERTEX
  8
0
 10
217.464647396023
 20
171.138666170644
 42
0.0
  0
VERTEX
  8
0
 10
216.741480052716
 20
171.621871141082
 42
0.0
  0
VERTEX
  8
0
 10
215.961428601429
 20
172.006549946354
 42
0.0
  0
VERTEX
  8
0
 10
215.137839938762
 20
172.286120625448
 42
0.0
  0
VERTEX
  8
0
 10
214.284805895076
 20
172.455799646533
 42
0.0
  0
VERTEX
  8
0
 10
213.416922119366
 20
172.512683754515
 42
0.0
  0
VERTEX
  8
0
 10
207.229224145638
 20
172.512683754514
 42
0.0
  0
VERTEX
  8
0
 10
206.819890814948
 20
172.485854630575
 42
0.0
  0
VERTEX
  8
0
 10
206.417561291035
 20
172.405826312507
 42
0.0
  0
VERTEX
  8
0
 10
206.0291195436
 20
172.273968107019
 42
0.0
  0
VERTEX
  8
0
 10
205.661211918637
 20
172.092536144567
 42
0.0
  0
VERTEX
  8
0
 10
205.320133417614
 20
171.86463477633
 42
0.0
  0
VERTEX
  8
0
 10
205.011719988246
 20
171.594163457904
 42
0.0
  0
VERTEX
  8
0
 10
204.741248669821
 20
171.285750028537
 42
0.0
  0
VERTEX
  8
0
 10
204.513347301583
 20
170.944671527513
 42
0.0
  0
VERTEX
  8
0
 10
204.331915339131
 20
170.57676390255
 42
0.0
  0
VERTEX
  8
0
 10
204.200057133643
 20
170.188322155115
 42
0.0
  0
VERTEX
  8
0
 10
204.120028815575
 20
169.785992631202
 42
0.0
  0
VERTEX
  8
0
 10
204.093199691636
 20
169.376659300512
 42
0.0
  0
VERTEX
  8
0
 10
204.093199691636
 20
142.148708208517
 42
0.0
  0
VERTEX
  8
0
 10
204.120028815575
 20
141.739374877827
 42
0.0
  0
VERTEX
  8
0
 10
204.200057133644
 20
141.337045353913
 42
0.0
  0
VERTEX
  8
0
 10
204.331915339132
 20
140.948603606478
 42
0.0
  0
VERTEX
  8
0
 10
204.513347301584
 20
140.580695981515
 42
0.0
  0
SEQEND
  0
POLYLINE
  8
0
 66
     1
 10
0.0
 20
0.0
 30
0.0
 70
     1
  0
VERTEX
  8
0
 10
16.6635494922918
 20
163.86432461172
 42
0.0
  0
VERTEX
  8
0
 10
17.5242037299379
 20
164.220819269463
 42
0.0
  0
VERTEX
  8
0
 10
18.2632642786848
 20
164.787920374267
 42
0.0
  0
VERTEX
  8
0
 10
18.830365383494
 20
165.526980923013
 42
0.0
  0
VERTEX
  8
0
 10
19.1868600412406
 20
166.387635160661
 42
0.0
  0
VERTEX
  8
0
 10
19.3084537301419
 20
167.311230923213
 42
0.0
  0
VERTEX
  8
0
 10
19.1868600412403
 20
168.234826685765
 42
0.0
  0
VERTEX
  8
0
 10
18.8303653834911
 20
169.095480923413
 42
0.0
  0
VERTEX
  8
0
 10
18.2632642786895
 20
169.834541472161
 42
0.0
  0
VERTEX
  8
0
 10
17.524203729943
 20
170.401642576964
 42
0.0
  0
VERTEX
  8
0
 10
16.6635494922942
 20
170.758137234718
 42
0.0
  0
VERTEX
  8
0
 10
15.739953729743
 20
170.879730923615
 42
0.0
  0
VERTEX
  8
0
 10
14.8163579671905
 20
170.758137234713
 42
0.0
  0
VERTEX
  8
0
 10
13.955703729543
 20
170.401642576967
 42
0.0
  0
VERTEX
  8
0
 10
13.2166431807955
 20
169.83454147216
 42
0.0
  0
VERTEX
  8
0
 10
12.6495420759885
 20
169.095480923416
 42
0.0
  0
VERTEX
  8
0
 10
12.2930474182425
 20
168.234826685767
 42
0.0
  0
VERTEX
  8
0
 10
12.1714537293416
 20
167.311230923213
 42
0.0
  0
VERTEX
  8
0
 10
12.2930474182425
 20
166.387635160663
 42
0.0
  0
VERTEX
  8
0
 10
12.6495420759914
 20
165.526980923015
 42
0.0
  0
VERTEX
  8
0
 10
13.2166431807908
 20
164.787920374267
 42
0.0
  0
VERTEX
  8
0
 10
13.955703729538
 20
164.220819269464
 42
0.0
  0
VERTEX
  8
0
 10
14.8163579671872
 20
163.864324611715
 42
0.0
  0
VERTEX
  8
0
 10
15.7399537297409
 20
163.742730922816
 42
0.0
  0
SEQEND
  0
POLYLINE
  8
0
 66
     1
 10
0.0
 20
0.0
 30
0.0
 70
     1
  0
VERTEX
  8
0
 10
174.504860309535
 20
103.412015154637
 42
0.0
  0
VERTEX
  8
0
 10
174.255128197765
 20
102.809071616274
 42
0.0
  0
VERTEX
  8
0
 10
173.85782249269
 20
102.291294043204
 42
0.0
  0
VERTEX
  8
0
 10
173.340070319551
 20
101.894013738061
 42
0.0
  0
VERTEX
  8
0
 10
172.737101381258
 20
101.64425622636
 42
0.0
  0
VERTEX
  8
0
 10
172.090063564413
 20
101.559064861137
 42
0.0
  0
VERTEX
  8
0
 10
171.443025747569
 20
101.64425622636
 42
0.0
  0
VERTEX
  8
0
 10
170.840056809276
 20
101.89401373806
 42
0.0
  0
VERTEX
  8
0
 10
170.322304636136
 20
102.291294043204
 42
0.0
  0
VERTEX
  8
0
 10
169.924998931061
 20
102.809071616274
 42
0.0
  0
VERTEX
  8
0
 10
169.675241419362
 20
103.412015154637
 42
0.0
  0
VERTEX
  8
0
 10
169.590075454068
 20
104.059052971482
 42
0.0
  0
VERTEX
  8
0
 10
169.590075454069
 20
125.059186606023
 42
0.0
  0
VERTEX
  8
0
 10
169.675241419362
 20
125.706224422867
 42
0.0
  0
VERTEX
  8
0
 10
169.924998931061
 20
126.309167961229
 42
0.0
  0
VERTEX
  8
0
 10
170.322304636136
 20
126.826945534299
 42
0.0
  0
VERTEX
  8
0
 10
170.840056809276
 20
127.224225839444
 42
0.0
  0
VERTEX
  8
0
 10
171.443025747569
 20
127.473983351143
 42
0.0
  0
VERTEX
  8
0
 10
172.090063564413
 20
127.559174716367
 42
0.0
  0
VERTEX
  8
0
 10
172.737101381258
 20
127.473983351143
 42
0.0
  0
VERTEX
  8
0
 10
173.340070319551
 20
127.224225839445
 42
0.0
  0
VERTEX
  8
0
 10
173.85782249269
 20
126.826945534299
 42
0.0
  0
VERTEX
  8
0
 10
174.255128197765
 20
126.309167961229
 42
0.0
  0
VERTEX
  8
0
 10
174.504860309535
 20
125.706224422866
 42
0.0
  0
VERTEX
  8
0
 10
174.590051674759
 20
125.059186606022
 42
0.0
  0
VERTEX
  8
0
 10
174.590051674758
 20
104.059052971481
 42
0.0
  0
SEQEND
  0
POLYLINE
  8
0
 66
     1
 10
0.0
 20
0.0
 30
0.0
 70
     1
  0
VERTEX
  8
0
 10
194.504815992154
 20
103.412015154637
 42
0.0
  0
VERTEX
  8
0
 10
194.255058480454
 20
102.809071616275
 42
0.0
  0
VERTEX
  8
0
 10
193.857778175309
 20
102.291294043204
 42
0.0
  0
VERTEX
  8
0
 10
193.34000060224
 20
101.89401373806
 42
0.0
  0
VERTEX
  8
0
 10
192.737057063877
 20
101.64425622636
 42
0.0
  0
VERTEX
  8
0
 10
192.090019247032
 20
101.559064861136
 42
0.0
  0
VERTEX
  8
0
 10
191.442956030258
 20
101.64425622636
 42
0.0
  0
VERTEX
  8
0
 10
190.840012491895
 20
101.89401373806
 42
0.0
  0
VERTEX
  8
0
 10
190.322234918825
 20
102.291294043204
 42
0.0
  0
VERTEX
  8
0
 10
189.92495461368
 20
102.809071616275
 42
0.0
  0
VERTEX
  8
0
 10
189.675197101981
 20
103.412015154638
 42
0.0
  0
VERTEX
  8
0
 10
189.590005736757
 20
104.059052971482
 42
0.0
  0
VERTEX
  8
0
 10
189.590005736758
 20
125.059186606023
 42
0.0
  0
VERTEX
  8
0
 10
189.675197101981
 20
125.706224422867
 42
0.0
  0
VERTEX
  8
0
 10
189.92495461368
 20
126.30916796123
 42
0.0
  0
VERTEX
  8
0
 10
190.322234918825
 20
126.826945534299
 42
0.0
  0
VERTEX
  8
0
 10
190.840012491895
 20
127.224225839444
 42
0.0
  0
VERTEX
  8
0
 10
191.442956030258
 20
127.473983351143
 42
0.0
  0
VERTEX
  8
0
 10
192.090019247032
 20
127.559174716366
 42
0.0
  0
VERTEX
  8
0
 10
192.737057063877
 20
127.473983351144
 42
0.0
  0
VERTEX
  8
0
 10
193.34000060224
 20
127.224225839443
 42
0.0
  0
VERTEX
  8
0
 10
193.857778175309
 20
126.826945534299
 42
0.0
  0
VERTEX
  8
0
 10
194.255058480454
 20
126.309167961229
 42
0.0
  0
VERTEX
  8
0
 10
194.504815992154
 20
125.706224422866
 42
0.0
  0
VERTEX
  8
0
 10
194.590007357378
 20
125.059186606022
 42
0.0
  0
VERTEX
  8
0
 10
194.590007357377
 20
104.059052971482
 42
0.0
  0
SEQEND
  0
POLYLINE
  8
0
 66
     1
 10
0.0
 20
0.0
 30
0.0
 70
     1
  0
VERTEX
  8
0
 10
117.266517662055
 20
17.921230923041
 42
0.0
  0
VERTEX
  8
0
 10
116.86922110536
 20
18.438997876268
 42
0.0
  0
VERTEX
  8
0
 10
116.351454152132
 20
18.836294432961
 42
0.0
  0
VERTEX
  8
0
 10
115.748501764584
 20
19.08604548935
 42
0.0
  0
VERTEX
  8
0
 10
115.101454151501
 20
19.171230923671
 42
0.0
  0
VERTEX
  8
0
 10
114.454406538419
 20
19.086045489351
 42
0.0
  0
VERTEX
  8
0
 10
113.851454150872
 20
18.836294432963
 42
0.0
  0
VERTEX
  8
0
 10
113.333687197645
 20
18.438997876267
 42
0.0
  0
VERTEX
  8
0
 10
112.93639064095
 20
17.921230923039
 42
0.0
  0
VERTEX
  8
0
 10
112.686639584564
 20
17.318278535494
 42
0.0
  0
VERTEX
  8
0
 10
112.601454150242
 20
16.671230922411
 42
0.0
  0
VERTEX
  8
0
 10
112.686639584562
 20
16.02418330933
 42
0.0
  0
VERTEX
  8
0
 10
112.936390640948
 20
15.421230921779
 42
0.0
  0
VERTEX
  8
0
 10
113.333687197643
 20
14.903463968552
 42
0.0
  0
VERTEX
  8
0
 10
113.851454150871
 20
14.506167411858
 42
0.0
  0
VERTEX
  8
0
 10
114.454406538419
 20
14.256416355472
 42
0.0
  0
VERTEX
  8
0
 10
115.101454151501
 20
14.1712309211511
 42
0.0
  0
VERTEX
  8
0
 10
115.748501764584
 20
14.256416355471
 42
0.0
  0
VERTEX
  8
0
 10
116.351454152131
 20
14.506167411856
 42
0.0
  0
VERTEX
  8
0
 10
116.869221105358
 20
14.903463968553
 42
0.0
  0
VERTEX
  8
0
 10
117.266517662052
 20
15.421230921781
 42
0.0
  0
VERTEX
  8
0
 10
117.516268718441
 20
16.024183309331
 42
0.0
  0
VERTEX
  8
0
 10
117.601454152761
 20
16.671230922413
 42
0.0
  0
VERTEX
  8
0
 10
117.516268718443
 20
17.318278535497
 42
0.0
  0
SEQEND
  0
POLYLINE
  8
0
 66
     1
 10
0.0
 20
0.0
 30
0.0
 70
     1
  0
VERTEX
  8
0
 10
145.890831232083
 20
164.061231225077
 42
0.0
  0
VERTEX
  8
0
 10
146.288127810086
 20
163.543464276031
 42
0.0
  0
VERTEX
  8
0
 10
146.805894782818
 20
163.146167728885
 42
0.0
  0
VERTEX
  8
0
 10
147.408847186734
 20
162.896416686768
 42
0.0
  0
VERTEX
  8
0
 10
148.055894811932
 20
162.811231270471
 42
0.0
  0
VERTEX
  8
0
 10
148.702942432053
 20
162.896416725337
 42
0.0
  0
VERTEX
  8
0
 10
149.305894821081
 20
163.146167803389
 42
0.0
  0
VERTEX
  8
0
 10
149.82366177013
 20
163.543464381396
 42
0.0
  0
VERTEX
  8
0
 10
150.220958317278
 20
164.061231354126
 42
0.0
  0
VERTEX
  8
0
 10
150.47070935939
 20
164.664183758042
 42
0.0
  0
VERTEX
  8
0
 10
150.555894775691
 20
165.311231383239
 42
0.0
  0
VERTEX
  8
0
 10
150.470709320825
 20
165.95827900336
 42
0.0
  0
VERTEX
  8
0
 10
150.220958242772
 20
166.561231392389
 42
0.0
  0
VERTEX
  8
0
 10
149.823661664763
 20
167.07899834144
 42
0.0
  0
VERTEX
  8
0
 10
149.305894692032
 20
167.476294888584
 42
0.0
  0
VERTEX
  8
0
 10
148.702942288117
 20
167.7260459307
 42
0.0
  0
VERTEX
  8
0
 10
148.055894662919
 20
167.811231346995
 42
0.0
  0
VERTEX
  8
0
 10
147.408847042798
 20
167.726045892131
 42
0.0
  0
VERTEX
  8
0
 10
146.80589465377
 20
167.476294814079
 42
0.0
  0
VERTEX
  8
0
 10
146.288127704719
 20
167.078998236075
 42
0.0
  0
VERTEX
  8
0
 10
145.890831157577
 20
166.561231263339
 42
0.0
  0
VERTEX
  8
0
 10
145.641080115463
 20
165.958278859424
 42
0.0
  0
VERTEX
  8
0
 10
145.555894699166
 20
165.311231234226
 42
0.0
  0
VERTEX
  8
0
 10
145.641080154028
 20
164.664183614106
 42
0.0
  0
SEQEND
  0
POLYLINE
  8
0
 66
     1
 10
0.0
 20
0.0
 30
0.0
 70
     1
  0
VERTEX
  8
0
 10
189.849714029891
 20
144.186827008752
 42
0.0
  0
VERTEX
  8
0
 10
190.247010607895
 20
143.669060059704
 42
0.0
  0
VERTEX
  8
0
 10
190.764777580627
 20
143.271763512558
 42
0.0
  0
VERTEX
  8
0
 10
191.367729984543
 20
143.022012470441
 42
0.0
  0
VERTEX
  8
0
 10
192.01477760974
 20
142.936827054144
 42
0.0
  0
VERTEX
  8
0
 10
192.661825229861
 20
143.02201250901
 42
0.0
  0
VERTEX
  8
0
 10
193.26477761889
 20
143.271763587062
 42
0.0
  0
VERTEX
  8
0
 10
193.782544567939
 20
143.66906016507
 42
0.0
  0
VERTEX
  8
0
 10
194.179841115087
 20
144.1868271378
 42
0.0
  0
VERTEX
  8
0
 10
194.4295921572
 20
144.789779541716
 42
0.0
  0
VERTEX
  8
0
 10
194.514777573499
 20
145.436827166913
 42
0.0
  0
VERTEX
  8
0
 10
194.429592118633
 20
146.083874787035
 42
0.0
  0
VERTEX
  8
0
 10
194.17984104058
 20
146.686827176063
 42
0.0
  0
VERTEX
  8
0
 10
193.782544462572
 20
147.204594125113
 42
0.0
  0
VERTEX
  8
0
 10
193.26477748984
 20
147.601890672257
 42
0.0
  0
VERTEX
  8
0
 10
192.661825085926
 20
147.851641714372
 42
0.0
  0
VERTEX
  8
0
 10
192.014777460726
 20
147.936827130668
 42
0.0
  0
VERTEX
  8
0
 10
191.367729840607
 20
147.851641675804
 42
0.0
  0
VERTEX
  8
0
 10
190.764777451578
 20
147.601890597752
 42
0.0
  0
VERTEX
  8
0
 10
190.247010502528
 20
147.204594019749
 42
0.0
  0
VERTEX
  8
0
 10
189.849713955386
 20
146.686827047014
 42
0.0
  0
VERTEX
  8
0
 10
189.59996291327
 20
146.083874643098
 42
0.0
  0
VERTEX
  8
0
 10
189.514777496974
 20
145.436827017901
 42
0.0
  0
VERTEX
  8
0
 10
189.599962951837
 20
144.78977939778
 42
0.0
  0
SEQEND
  0
POLYLINE
  8
0
 66
     1
 10
0.0
 20
0.0
 30
0.0
 70
     1
  0
VERTEX
  8
0
 10
18.2632642786843
 20
14.147920374621
 42
0.0
  0
VERTEX
  8
0
 10
18.8303653834882
 20
14.886980923366
 42
0.0
  0
VERTEX
  8
0
 10
19.1868600412338
 20
15.747635161015
 42
0.0
  0
VERTEX
  8
0
 10
19.3084537301368
 20
16.671230923567
 42
0.0
  0
VERTEX
  8
0
 10
19.1868600412381
 20
17.594826686119
 42
0.0
  0
VERTEX
  8
0
 10
18.8303653834893
 20
18.455480923766
 42
0.0
  0
VERTEX
  8
0
 10
18.2632642786844
 20
19.194541472515
 42
0.0
  0
VERTEX
  8
0
 10
17.5242037299379
 20
19.761642577319
 42
0.0
  0
VERTEX
  8
0
 10
16.6635494922891
 20
20.118137235071
 42
0.0
  0
VERTEX
  8
0
 10
15.7399537297372
 20
20.239730923969
 42
0.0
  0
VERTEX
  8
0
 10
14.8163579671854
 20
20.118137235067
 42
0.0
  0
VERTEX
  8
0
 10
13.955703729538
 20
19.76164257732
 42
0.0
  0
VERTEX
  8
0
 10
13.2166431807897
 20
19.194541472514
 42
0.0
  0
VERTEX
  8
0
 10
12.6495420759867
 20
18.455480923769
 42
0.0
  0
VERTEX
  8
0
 10
12.2930474182404
 20
17.59482668612
 42
0.0
  0
VERTEX
  8
0
 10
12.1714537293369
 20
16.671230923568
 42
0.0
  0
VERTEX
  8
0
 10
12.2930474182357
 20
15.747635161016
 42
0.0
  0
VERTEX
  8
0
 10
12.6495420759856
 20
14.886980923369
 42
0.0
  0
VERTEX
  8
0
 10
13.2166431807902
 20
14.14792037462
 42
0.0
  0
VERTEX
  8
0
 10
13.955703729538
 20
13.580819269818
 42
0.0
  0
VERTEX
  8
0
 10
14.816357967185
 20
13.224324612069
 42
0.0
  0
VERTEX
  8
0
 10
15.7399537297376
 20
13.10273092317
 42
0.0
  0
VERTEX
  8
0
 10
16.6635494922887
 20
13.224324612074
 42
0.0
  0
VERTEX
  8
0
 10
17.5242037299379
 20
13.580819269816
 42
0.0
  0
SEQEND
  0
POLYLINE
  8
0
 66
     1
 10
0.0
 20
0.0
 30
0.0
 70
     1
  0
VERTEX
  8
0
 10
170.243849071052
 20
82.9342200118759
 42
0.0
  0
VERTEX
  8
0
 10
170.761616043782
 20
82.53692346473
 42
0.0
  0
VERTEX
  8
0
 10
171.364568447698
 20
82.287172422613
 42
0.0
  0
VERTEX
  8
0
 10
172.011616072895
 20
82.2019870063149
 42
0.0
  0
VERTEX
  8
0
 10
172.658663693017
 20
82.287172461182
 42
0.0
  0
VERTEX
  8
0
 10
173.261616082045
 20
82.5369235392349
 42
0.0
  0
VERTEX
  8
0
 10
173.779383031096
 20
82.934220117241
 42
0.0
  0
VERTEX
  8
0
 10
174.176679578244
 20
83.4519870899709
 42
0.0
  0
VERTEX
  8
0
 10
174.426430620357
 20
84.0549394938873
 42
0.0
  0
VERTEX
  8
0
 10
174.511616036655
 20
84.7019871190842
 42
0.0
  0
VERTEX
  8
0
 10
174.42643058179
 20
85.349034739206
 42
0.0
  0
VERTEX
  8
0
 10
174.176679503737
 20
85.9519871282333
 42
0.0
  0
VERTEX
  8
0
 10
173.779382925728
 20
86.4697540772847
 42
0.0
  0
VERTEX
  8
0
 10
173.261615952997
 20
86.8670506244299
 42
0.0
  0
VERTEX
  8
0
 10
172.658663549082
 20
87.1168016665438
 42
0.0
  0
VERTEX
  8
0
 10
172.011615923884
 20
87.2019870828397
 42
0.0
  0
VERTEX
  8
0
 10
171.364568303763
 20
87.1168016279761
 42
0.0
  0
VERTEX
  8
0
 10
170.761615914735
 20
86.8670505499236
 42
0.0
  0
VERTEX
  8
0
 10
170.243848965684
 20
86.4697539719203
 42
0.0
  0
VERTEX
  8
0
 10
169.846552418542
 20
85.9519869991847
 42
0.0
  0
VERTEX
  8
0
 10
169.596801376427
 20
85.3490345952691
 42
0.0
  0
VERTEX
  8
0
 10
169.51161596013
 20
84.701986970072
 42
0.0
  0
VERTEX
  8
0
 10
169.596801414994
 20
84.0549393499513
 42
0.0
  0
VERTEX
  8
0
 10
169.846552493049
 20
83.451986960923
 42
0.0
  0
SEQEND
  0
POLYLINE
  8
0
 66
     1
 10
0.0
 20
0.0
 30
0.0
 70
     1
  0
VERTEX
  8
0
 10
117.26651766079
 20
57.921230924207
 42
0.0
  0
VERTEX
  8
0
 10
116.869221104097
 20
58.438997877434
 42
0.0
  0
VERTEX
  8
0
 10
116.35145415087
 20
58.836294434126
 42
0.0
  0
VERTEX
  8
0
 10
115.748501763322
 20
59.086045490516
 42
0.0
  0
VERTEX
  8
0
 10
115.101454150239
 20
59.171230924837
 42
0.0
  0
VERTEX
  8
0
 10
114.454406537157
 20
59.086045490517
 42
0.0
  0
VERTEX
  8
0
 10
113.85145414961
 20
58.836294434128
 42
0.0
  0
VERTEX
  8
0
 10
113.333687196383
 20
58.438997877432
 42
0.0
  0
VERTEX
  8
0
 10
112.936390639686
 20
57.921230924205
 42
0.0
  0
VERTEX
  8
0
 10
112.6866395833
 20
57.31827853666
 42
0.0
  0
VERTEX
  8
0
 10
112.601454148979
 20
56.671230923577
 42
0.0
  0
VERTEX
  8
0
 10
112.686639583299
 20
56.024183310495
 42
0.0
  0
VERTEX
  8
0
 10
112.936390639685
 20
55.421230922945
 42
0.0
  0
VERTEX
  8
0
 10
113.33368719638
 20
54.903463969717
 42
0.0
  0
VERTEX
  8
0
 10
113.851454149608
 20
54.506167413024
 42
0.0
  0
VERTEX
  8
0
 10
114.454406537156
 20
54.256416356638
 42
0.0
  0
VERTEX
  8
0
 10
115.101454150238
 20
54.171230922317
 42
0.0
  0
VERTEX
  8
0
 10
115.748501763321
 20
54.256416356637
 42
0.0
  0
VERTEX
  8
0
 10
116.351454150868
 20
54.506167413022
 42
0.0
  0
VERTEX
  8
0
 10
116.869221104095
 20
54.903463969719
 42
0.0
  0
VERTEX
  8
0
 10
117.266517660789
 20
55.421230922947
 42
0.0
  0
VERTEX
  8
0
 10
117.516268717178
 20
56.024183310496
 42
0.0
  0
VERTEX
  8
0
 10
117.601454151499
 20
56.671230923579
 42
0.0
  0
VERTEX
  8
0
 10
117.516268717179
 20
57.318278536662
 42
0.0
  0
SEQEND
  0
POLYLINE
  8
0
 66
     1
 10
0.0
 20
0.0
 30
0.0
 70
     1
  0
VERTEX
  8
0
 10
2.5266756081967
 20
180.329839323548
 42
0.0
  0
VERTEX
  8
0
 10
2.7710560023747
 20
180.695580429756
 42
0.0
  0
VERTEX
  8
0
 10
3.0610844823365
 20
181.026294527796
 42
0.0
  0
VERTEX
  8
0
 10
3.3917985803763
 20
181.316323007756
 42
0.0
  0
VERTEX
  8
0
 10
3.7575396865896
 20
181.560703401935
 42
0.0
  0
VERTEX
  8
0
 10
4.1520498692425
 20
181.755254294033
 42
0.0
  0
VERTEX
  8
0
 10
4.5685789497307
 20
181.896646864347
 42
0.0
  0
VERTEX
  8
0
 10
5.0000000000051
 20
181.982461846793
 42
0.0
  0
VERTEX
  8
0
 10
5.4389312862816
 20
182.011230923232
 42
0.0
  0
VERTEX
  8
0
 10
219.90044171663
 20
182.012744148609
 42
0.0
  0
VERTEX
  8
0
 10
221.162052528143
 20
181.930062315362
 42
0.0
  0
VERTEX
  8
0
 10
222.402077795393
 20
181.683413857306
 42
0.0
  0
VERTEX
  8
0
 10
223.599300153235
 20
181.277019035539
 42
0.0
  0
VERTEX
  8
0
 10
224.733234612702
 20
180.717831440084
 42
0.0
  0
VERTEX
  8
0
 10
225.784479067959
 20
180.015419010973
 42
0.0
  0
VERTEX
  8
0
 10
226.735046274672
 20
179.181800326682
 42
0.0
  0
VERTEX
  8
0
 10
227.568671619492
 20
178.231238961093
 42
0.0
  0
VERTEX
  8
0
 10
228.271091414574
 20
177.179999427611
 42
0.0
  0
VERTEX
  8
0
 10
228.830286955405
 20
176.046068886355
 42
0.0
  0
VERTEX
  8
0
 10
229.236690166005
 20
174.848849376118
 42
0.0
  0
VERTEX
  8
0
 10
229.483347312815
 20
173.608825837146
 42
0.0
  0
VERTEX
  8
0
 10
229.566037986068
 20
172.347215605009
 42
0.0
  0
VERTEX
  8
0
 10
229.566037986069
 20
73.1640532994559
 42
0.0
  0
VERTEX
  8
0
 10
229.522538144521
 20
72.1424087742679
 42
0.0
  0
VERTEX
  8
0
 10
229.392353493852
 20
71.128159431752
 42
0.0
  0
VERTEX
  8
0
 10
229.176426376777
 20
70.1286469244899
 42
0.0
  0
VERTEX
  8
0
 10
228.876319783585
 20
69.1511062323519
 42
0.0
  0
VERTEX
  8
0
 10
228.494206038431
 20
68.202613292037
 42
0.0
  0
VERTEX
  8
0
 10
228.032851074944
 20
67.290033777843
 42
0.0
  0
VERTEX
  8
0
 10
227.495594414987
 20
66.4199734044229
 42
0.0
  0
VERTEX
  8
0
 10
226.886324995512
 20
65.5987301112669
 42
0.0
  0
VERTEX
  8
0
 10
226.209453018445
 20
64.8322484750059
 42
0.0
  0
VERTEX
  8
0
 10
225.469878027407
 20
64.126076679551
 42
0.0
  0
VERTEX
  8
0
 10
224.672953442328
 20
63.4853263555109
 42
0.0
  0
VERTEX
  8
0
 10
223.824447808661
 20
62.91463557961
 42
0.0
  0
VERTEX
  8
0
 10
128.842686025329
 20
4.822743967775
 42
0.0
  0
VERTEX
  8
0
 10
126.597824775052
 20
3.9595691865141
 42
0.0
  0
VERTEX
  8
0
 10
125.455046141793
 20
3.584632035894
 42
0.0
  0
VERTEX
  8
0
 10
124.30039398744
 20
3.2480324607381
 42
0.0
  0
VERTEX
  8
0
 10
123.135154056442
 20
2.950145276124
 42
0.0
  0
VERTEX
  8
0
 10
121.960623883102
 20
2.691302189562
 42
0.0
  0
VERTEX
  8
0
 10
120.778111346718
 20
2.471791431636
 42
0.0
  0
VERTEX
  8
0
 10
119.588933215226
 20
2.291857435042
 42
0.0
  0
VERTEX
  8
0
 10
118.394413678927
 20
2.151700562405
 42
0.0
  0
VERTEX
  8
0
 10
117.195882875956
 20
2.051476883171
 42
0.0
  0
VERTEX
  8
0
 10
114.79212886983
 20
1.971230923575
 42
0.0
  0
VERTEX
  8
0
 10
5.4389312862758
 20
1.971230923559
 42
0.0
  0
VERTEX
  8
0
 10
5.0
 20
2.0
 42
0.0
  0
VERTEX
  8
0
 10
4.5685789497259
 20
2.085814982448
 42
0.0
  0
VERTEX
  8
0
 10
4.1520498692385
 20
2.227207552757
 42
0.0
  0
VERTEX
  8
0
 10
3.7575396865863
 20
2.421758444853
 42
0.0
  0
VERTEX
  8
0
 10
3.3917985803745
 20
2.666138839034
 42
0.0
  0
VERTEX
  8
0
 10
3.0610844823339
 20
2.956167318993
 42
0.0
  0
VERTEX
  8
0
 10
2.7710560023733
 20
3.286881417035
 42
0.0
  0
VERTEX
  8
0
 10
2.5266756081934
 20
3.652622523245
 42
0.0
  0
VERTEX
  8
0
 10
2.3321247160946
 20
4.0471327058961
 42
0.0
  0
VERTEX
  8
0
 10
2.1907321457845
 20
4.463661786383
 42
0.0
  0
VERTEX
  8
0
 10
2.1049171633365
 20
4.895082836659
 42
0.0
  0
VERTEX
  8
0
 10
2.0761480868964
 20
5.334014122935
 42
0.0
  0
VERTEX
  8
0
 10
2.0761480869001
 20
178.648447723858
 42
0.0
  0
VERTEX
  8
0
 10
2.1049171633401
 20
179.087379010134
 42
0.0
  0
VERTEX
  8
0
 10
2.1907321457877
 20
179.518800060408
 42
0.0
  0
VERTEX
  8
0
 10
2.3321247161001
 20
179.935329140896
 42
0.0
  0
SEQEND
  0
POLYLINE
  8
0
 66
     1
 10
0.0
 20
0.0
 30
0.0
 70
     1
  0
VERTEX
  8
0
 10
112.686639583303
 20
127.958278536299
 42
0.0
  0
VERTEX
  8
0
 10
112.601454148983
 20
127.31123092322
 42
0.0
  0
VERTEX
  8
0
 10
112.686639583303
 20
126.664183310135
 42
0.0
  0
VERTEX
  8
0
 10
112.936390639691
 20
126.061230922587
 42
0.0
  0
VERTEX
  8
0
 10
113.333687196386
 20
125.543463969359
 42
0.0
  0
VERTEX
  8
0
 10
113.851454149612
 20
125.146167412665
 42
0.0
  0
VERTEX
  8
0
 10
114.45440653716
 20
124.896416356279
 42
0.0
  0
VERTEX
  8
0
 10
115.101454150243
 20
124.811230921958
 42
0.0
  0
VERTEX
  8
0
 10
115.748501763325
 20
124.896416356278
 42
0.0
  0
VERTEX
  8
0
 10
116.351454150872
 20
125.146167412663
 42
0.0
  0
VERTEX
  8
0
 10
116.869221104101
 20
125.543463969361
 42
0.0
  0
VERTEX
  8
0
 10
117.266517660796
 20
126.061230922588
 42
0.0
  0
VERTEX
  8
0
 10
117.516268717183
 20
126.664183310139
 42
0.0
  0
VERTEX
  8
0
 10
117.601454151503
 20
127.311230923221
 42
0.0
  0
VERTEX
  8
0
 10
117.516268717182
 20
127.958278536304
 42
0.0
  0
VERTEX
  8
0
 10
117.266517660795
 20
128.561230923848
 42
0.0
  0
VERTEX
  8
0
 10
116.869221104097
 20
129.078997877075
 42
0.0
  0
VERTEX
  8
0
 10
116.351454150872
 20
129.476294433768
 42
0.0
  0
VERTEX
  8
0
 10
115.748501763324
 20
129.726045490158
 42
0.0
  0
VERTEX
  8
0
 10
115.101454150241
 20
129.811230924478
 42
0.0
  0
VERTEX
  8
0
 10
114.454406537159
 20
129.726045490159
 42
0.0
  0
VERTEX
  8
0
 10
113.851454149613
 20
129.47629443377
 42
0.0
  0
VERTEX
  8
0
 10
113.333687196383
 20
129.078997877074
 42
0.0
  0
VERTEX
  8
0
 10
112.93639063969
 20
128.561230923847
 42
0.0
  0
SEQEND
  0
POLYLINE
  8
0
 66
     1
 10
0.0
 20
0.0
 30
0.0
 70
     1
  0
VERTEX
  8
0
 10
113.851454148347
 20
165.146167413831
 42
0.0
  0
VERTEX
  8
0
 10
114.454406535895
 20
164.896416357445
 42
0.0
  0
VERTEX
  8
0
 10
115.101454148978
 20
164.811230923123
 42
0.0
  0
VERTEX
  8
0
 10
115.74850176206
 20
164.896416357444
 42
0.0
  0
VERTEX
  8
0
 10
116.351454149607
 20
165.146167413829
 42
0.0
  0
VERTEX
  8
0
 10
116.869221102838
 20
165.543463970527
 42
0.0
  0
VERTEX
  8
0
 10
117.266517659533
 20
166.061230923754
 42
0.0
  0
VERTEX
  8
0
 10
117.51626871592
 20
166.664183311305
 42
0.0
  0
VERTEX
  8
0
 10
117.60145415024
 20
167.311230924387
 42
0.0
  0
VERTEX
  8
0
 10
117.516268715919
 20
167.95827853747
 42
0.0
  0
VERTEX
  8
0
 10
117.266517659532
 20
168.561230925014
 42
0.0
  0
VERTEX
  8
0
 10
116.869221102834
 20
169.078997878241
 42
0.0
  0
VERTEX
  8
0
 10
116.35145414961
 20
169.476294434934
 42
0.0
  0
VERTEX
  8
0
 10
115.748501762061
 20
169.726045491323
 42
0.0
  0
VERTEX
  8
0
 10
115.101454148978
 20
169.811230925644
 42
0.0
  0
VERTEX
  8
0
 10
114.454406535896
 20
169.726045491325
 42
0.0
  0
VERTEX
  8
0
 10
113.85145414835
 20
169.476294434936
 42
0.0
  0
VERTEX
  8
0
 10
113.33368719512
 20
169.07899787824
 42
0.0
  0
VERTEX
  8
0
 10
112.936390638427
 20
168.561230925012
 42
0.0
  0
VERTEX
  8
0
 10
112.68663958204
 20
167.958278537465
 42
0.0
  0
VERTEX
  8
0
 10
112.60145414772
 20
167.311230924386
 42
0.0
  0
VERTEX
  8
0
 10
112.68663958204
 20
166.6641833113
 42
0.0
  0
VERTEX
  8
0
 10
112.936390638428
 20
166.061230923752
 42
0.0
  0
VERTEX
  8
0
 10
113.333687195124
 20
165.543463970525
 42
0.0
  0
SEQEND
  0
POLYLINE
  8
0
 66
     1
 10
0.0
 20
0.0
 30
0.0
 70
     1
  0
VERTEX
  8
0
 10
209.675216009059
 20
125.706224422866
 42
0.0
  0
VERTEX
  8
0
 10
209.924973520758
 20
126.309167961229
 42
0.0
  0
VERTEX
  8
0
 10
210.322253825903
 20
126.8269455343
 42
0.0
  0
VERTEX
  8
0
 10
210.840031398973
 20
127.224225839444
 42
0.0
  0
VERTEX
  8
0
 10
211.442974937335
 20
127.473983351144
 42
0.0
  0
VERTEX
  8
0
 10
212.09003815411
 20
127.559174716367
 42
0.0
  0
VERTEX
  8
0
 10
212.737075970954
 20
127.473983351144
 42
0.0
  0
VERTEX
  8
0
 10
213.340019509317
 20
127.224225839444
 42
0.0
  0
VERTEX
  8
0
 10
213.857797082387
 20
126.826945534299
 42
0.0
  0
VERTEX
  8
0
 10
214.255077387532
 20
126.309167961229
 42
0.0
  0
VERTEX
  8
0
 10
214.504834899232
 20
125.706224422866
 42
0.0
  0
VERTEX
  8
0
 10
214.590026264456
 20
125.059186606022
 42
0.0
  0
VERTEX
  8
0
 10
214.590026264455
 20
104.059052971482
 42
0.0
  0
VERTEX
  8
0
 10
214.504834899231
 20
103.412015154638
 42
0.0
  0
VERTEX
  8
0
 10
214.255077387532
 20
102.809071616275
 42
0.0
  0
VERTEX
  8
0
 10
213.857797082387
 20
102.291294043204
 42
0.0
  0
VERTEX
  8
0
 10
213.340019509317
 20
101.89401373806
 42
0.0
  0
VERTEX
  8
0
 10
212.737075970954
 20
101.64425622636
 42
0.0
  0
VERTEX
  8
0
 10
212.09003815411
 20
101.559064861137
 42
0.0
  0
VERTEX
  8
0
 10
211.442974937335
 20
101.64425622636
 42
0.0
  0
VERTEX
  8
0
 10
210.840031398972
 20
101.89401373806
 42
0.0
  0
VERTEX
  8
0
 10
210.322253825903
 20
102.291294043205
 42
0.0
  0
VERTEX
  8
0
 10
209.924973520758
 20
102.809071616274
 42
0.0
  0
VERTEX
  8
0
 10
209.675216009058
 20
103.412015154637
 42
0.0
  0
VERTEX
  8
0
 10
209.590024643835
 20
104.059052971482
 42
0.0
  0
VERTEX
  8
0
 10
209.590024643836
 20
125.059186606022
 42
0.0
  0
SEQEND
  0
POLYLINE
  8
0
 66
     1
 10
0.0
 20
0.0
 30
0.0
 70
     1
  0
VERTEX
  8
0
 10
12.2930474182397
 20
91.0676351608458
 42
0.0
  0
VERTEX
  8
0
 10
12.6495420759849
 20
90.2069809231982
 42
0.0
  0
VERTEX
  8
0
 10
13.2166431807904
 20
89.4679203744501
 42
0.0
  0
VERTEX
  8
0
 10
13.9557037295387
 20
88.9008192696473
 42
0.0
  0
VERTEX
  8
0
 10
14.8163579671874
 20
88.5443246118982
 42
0.0
  0
VERTEX
  8
0
 10
15.7399537297391
 20
88.4227309229991
 42
0.0
  0
VERTEX
  8
0
 10
16.6635494922911
 20
88.544324611903
 42
0.0
  0
VERTEX
  8
0
 10
17.5242037299387
 20
88.9008192696458
 42
0.0
  0
VERTEX
  8
0
 10
18.2632642786848
 20
89.4679203744507
 42
0.0
  0
VERTEX
  8
0
 10
18.8303653834871
 20
90.2069809231964
 42
0.0
  0
VERTEX
  8
0
 10
19.1868600412374
 20
91.0676351608442
 42
0.0
  0
VERTEX
  8
0
 10
19.3084537301412
 20
91.9912309233971
 42
0.0
  0
VERTEX
  8
0
 10
19.1868600412385
 20
92.9148266859479
 42
0.0
  0
VERTEX
  8
0
 10
18.8303653834896
 20
93.7754809235964
 42
0.0
  0
VERTEX
  8
0
 10
18.2632642786841
 20
94.5145414723451
 42
0.0
  0
VERTEX
  8
0
 10
17.5242037299369
 20
95.081642577148
 42
0.0
  0
VERTEX
  8
0
 10
16.6635494922895
 20
95.4381372349011
 42
0.0
  0
VERTEX
  8
0
 10
15.7399537297376
 20
95.5597309237994
 42
0.0
  0
VERTEX
  8
0
 10
14.8163579671858
 20
95.4381372348963
 42
0.0
  0
VERTEX
  8
0
 10
13.9557037295369
 20
95.0816425771499
 42
0.0
  0
VERTEX
  8
0
 10
13.2166431807901
 20
94.5145414723445
 42
0.0
  0
VERTEX
  8
0
 10
12.649542075987
 20
93.7754809235985
 42
0.0
  0
VERTEX
  8
0
 10
12.2930474182404
 20
92.9148266859499
 42
0.0
  0
VERTEX
  8
0
 10
12.1714537293413
 20
91.9912309233967
 42
0.0
  0
SEQEND
  0
POLYLINE
  8
0
 66
     1
 10
0.0
 20
0.0
 30
0.0
 70
     1
  0
VERTEX
  8
0
 10
193.849772011
 20
171.873998850239
 42
0.0
  0
VERTEX
  8
0
 10
193.971059074902
 20
171.692479931465
 42
0.0
  0
VERTEX
  8
0
 10
194.067615537876
 20
171.496682793589
 42
0.0
  0
VERTEX
  8
0
 10
194.13778929207
 20
171.289957579923
 42
0.0
  0
VERTEX
  8
0
 10
194.180379645092
 20
171.075841416189
 42
0.0
  0
VERTEX
  8
0
 10
194.194657864196
 20
159.480194945925
 42
0.0
  0
VERTEX
  8
0
 10
194.13778929207
 20
159.048235255314
 42
0.0
  0
VERTEX
  8
0
 10
194.067615537876
 20
158.841510041649
 42
0.0
  0
VERTEX
  8
0
 10
193.971059074903
 20
158.645712903772
 42
0.0
  0
VERTEX
  8
0
 10
193.849772011
 20
158.464193984998
 42
0.0
  0
VERTEX
  8
0
 10
193.70582960146
 20
158.300059124355
 42
0.0
  0
VERTEX
  8
0
 10
193.541694740817
 20
158.156116714815
 42
0.0
  0
VERTEX
  8
0
 10
193.360175822044
 20
158.034829650912
 42
0.0
  0
VERTEX
  8
0
 10
193.164378684168
 20
157.938273187939
 42
0.0
  0
VERTEX
  8
0
 10
192.957653470502
 20
157.868099433745
 42
0.0
  0
VERTEX
  8
0
 10
192.570175076867
 20
157.817086935462
 42
0.0
  0
VERTEX
  8
0
 10
179.712026191695
 20
157.811230861618
 42
0.0
  0
VERTEX
  8
0
 10
179.280066501085
 20
157.868099433744
 42
0.0
  0
VERTEX
  8
0
 10
179.073341287419
 20
157.938273187937
 42
0.0
  0
VERTEX
  8
0
 10
178.877544149543
 20
158.034829650911
 42
0.0
  0
VERTEX
  8
0
 10
178.696025230769
 20
158.156116714814
 42
0.0
  0
VERTEX
  8
0
 10
178.531890370126
 20
158.300059124354
 42
0.0
  0
VERTEX
  8
0
 10
178.387947960585
 20
158.464193984997
 42
0.0
  0
VERTEX
  8
0
 10
178.266660896683
 20
158.64571290377
 42
0.0
  0
VERTEX
  8
0
 10
178.170104433709
 20
158.841510041647
 42
0.0
  0
VERTEX
  8
0
 10
178.099930679516
 20
159.048235255313
 42
0.0
  0
VERTEX
  8
0
 10
178.04306210739
 20
159.480194945923
 42
0.0
  0
VERTEX
  8
0
 10
178.044621758562
 20
161.95017378549
 42
0.0
  0
VERTEX
  8
0
 10
176.831368175316
 20
162.920152625056
 42
0.0
  0
VERTEX
  8
0
 10
176.184354805462
 20
163.005598159999
 42
0.0
  0
VERTEX
  8
0
 10
175.581502813328
 20
163.255591591496
 42
0.0
  0
VERTEX
  8
0
 10
175.063895565918
 20
163.653096280323
 42
0.0
  0
VERTEX
  8
0
 10
174.666807141756
 20
164.171022938846
 42
0.0
  0
VERTEX
  8
0
 10
174.417298460728
 20
164.774075721199
 42
0.0
  0
VERTEX
  8
0
 10
174.332373127118
 20
165.421157576858
 42
0.0
  0
VERTEX
  8
0
 10
174.417818662062
 20
166.068170946712
 42
0.0
  0
VERTEX
  8
0
 10
174.667812093558
 20
166.671022938846
 42
0.0
  0
VERTEX
  8
0
 10
175.065316782385
 20
167.188630186256
 42
0.0
  0
VERTEX
  8
0
 10
175.583243440908
 20
167.585718610418
 42
0.0
  0
VERTEX
  8
0
 10
176.186296223261
 20
167.835227291445
 42
0.0
  0
VERTEX
  8
0
 10
176.83337807892
 20
167.920152625056
 42
0.0
  0
VERTEX
  8
0
 10
178.053770771717
 20
168.890131464623
 42
0.0
  0
VERTEX
  8
0
 10
178.057340326493
 20
171.075841416187
 42
0.0
  0
VERTEX
  8
0
 10
178.099930679516
 20
171.289957579921
 42
0.0
  0
VERTEX
  8
0
 10
178.170104433709
 20
171.496682793587
 42
0.0
  0
VERTEX
  8
0
 10
178.266660896682
 20
171.692479931464
 42
0.0
  0
VERTEX
  8
0
 10
178.387947960585
 20
171.873998850237
 42
0.0
  0
VERTEX
  8
0
 10
178.531890370126
 20
172.03813371088
 42
0.0
  0
VERTEX
  8
0
 10
178.696025230769
 20
172.182076120421
 42
0.0
  0
VERTEX
  8
0
 10
178.877544149542
 20
172.303363184323
 42
0.0
  0
VERTEX
  8
0
 10
179.073341287419
 20
172.399919647297
 42
0.0
  0
VERTEX
  8
0
 10
179.280066501085
 20
172.47009340149
 42
0.0
  0
VERTEX
  8
0
 10
179.494182664818
 20
172.512683754513
 42
0.0
  0
VERTEX
  8
0
 10
192.743537306767
 20
172.512683754514
 42
0.0
  0
VERTEX
  8
0
 10
192.957653470501
 20
172.470093401492
 42
0.0
  0
VERTEX
  8
0
 10
193.164378684167
 20
172.399919647299
 42
0.0
  0
VERTEX
  8
0
 10
193.360175822043
 20
172.303363184324
 42
0.0
  0
VERTEX
  8
0
 10
193.541694740817
 20
172.182076120422
 42
0.0
  0
VERTEX
  8
0
 10
193.70582960146
 20
172.038133710881
 42
0.0
  0
SEQEND
  0
POLYLINE
  8
0
 66
     1
 10
0.0
 20
0.0
 30
0.0
 70
     1
  0
VERTEX
  8
0
 10
113.481860000868
 20
69.629297650098
 42
0.0
  0
VERTEX
  8
0
 10
113.078229713223
 20
70.155330200418
 42
0.0
  0
VERTEX
  8
0
 10
112.552171762972
 20
70.558985887993
 42
0.0
  0
VERTEX
  8
0
 10
111.939576251209
 20
70.812731188703
 42
0.0
  0
VERTEX
  8
0
 10
111.282175262924
 20
70.899294150146
 42
0.0
  0
VERTEX
  8
0
 10
102.282199042235
 20
70.899294150147
 42
0.0
  0
VERTEX
  8
0
 10
101.62479805395
 20
70.812731188704
 42
0.0
  0
VERTEX
  8
0
 10
101.012202542187
 20
70.558985887993
 42
0.0
  0
VERTEX
  8
0
 10
100.486144591937
 20
70.155330200418
 42
0.0
  0
VERTEX
  8
0
 10
100.082488904361
 20
69.629297650098
 42
0.0
  0
VERTEX
  8
0
 10
99.8287436036517
 20
69.016702138335
 42
0.0
  0
VERTEX
  8
0
 10
99.7422060421385
 20
68.359301150049
 42
0.0
  0
VERTEX
  8
0
 10
99.8287436036519
 20
67.701900161765
 42
0.0
  0
VERTEX
  8
0
 10
100.082488904362
 20
67.089304650001
 42
0.0
  0
VERTEX
  8
0
 10
100.486144591937
 20
66.563246699752
 42
0.0
  0
VERTEX
  8
0
 10
101.012202542186
 20
66.159591012177
 42
0.0
  0
VERTEX
  8
0
 10
101.624798053949
 20
65.905845711468
 42
0.0
  0
VERTEX
  8
0
 10
102.282199042234
 20
65.819308149954
 42
0.0
  0
VERTEX
  8
0
 10
111.282175262923
 20
65.819308149953
 42
0.0
  0
VERTEX
  8
0
 10
111.939576251208
 20
65.905845711467
 42
0.0
  0
VERTEX
  8
0
 10
112.552171762971
 20
66.159591012177
 42
0.0
  0
VERTEX
  8
0
 10
113.078229713223
 20
66.563246699752
 42
0.0
  0
VERTEX
  8
0
 10
113.481860000868
 20
67.089304650001
 42
0.0
  0
VERTEX
  8
0
 10
113.735630701507
 20
67.701900161765
 42
0.0
  0
VERTEX
  8
0
 10
113.822168263021
 20
68.35930115005
 42
0.0
  0
VERTEX
  8
0
 10
113.735630701507
 20
69.016702138335
 42
0.0
  0
SEQEND
  0
POLYLINE
  8
0
 66
     1
 10
0.0
 20
0.0
 30
0.0
 70
     1
  0
VERTEX
  8
0
 10
160.72572980266
 20
116.873167451889
 42
0.0
  0
VERTEX
  8
0
 10
160.322099515014
 20
117.399200002208
 42
0.0
  0
VERTEX
  8
0
 10
159.796041564763
 20
117.802855689784
 42
0.0
  0
VERTEX
  8
0
 10
159.183446053
 20
118.056600990494
 42
0.0
  0
VERTEX
  8
0
 10
158.526045064715
 20
118.143163951939
 42
0.0
  0
VERTEX
  8
0
 10
149.526068844026
 20
118.143163951937
 42
0.0
  0
VERTEX
  8
0
 10
148.868667855741
 20
118.056600990495
 42
0.0
  0
VERTEX
  8
0
 10
148.256072343978
 20
117.802855689785
 42
0.0
  0
VERTEX
  8
0
 10
147.730014393728
 20
117.39920000221
 42
0.0
  0
VERTEX
  8
0
 10
147.326358706153
 20
116.873167451889
 42
0.0
  0
VERTEX
  8
0
 10
147.072613405444
 20
116.260571940126
 42
0.0
  0
VERTEX
  8
0
 10
146.986075843928
 20
115.603170951841
 42
0.0
  0
VERTEX
  8
0
 10
147.072613405443
 20
114.945769963556
 42
0.0
  0
VERTEX
  8
0
 10
147.326358706152
 20
114.333174451793
 42
0.0
  0
VERTEX
  8
0
 10
147.730014393728
 20
113.807116501544
 42
0.0
  0
VERTEX
  8
0
 10
148.256072343978
 20
113.403460813968
 42
0.0
  0
VERTEX
  8
0
 10
148.868667855741
 20
113.149715513259
 42
0.0
  0
VERTEX
  8
0
 10
149.526068844026
 20
113.063177951745
 42
0.0
  0
VERTEX
  8
0
 10
158.526045064715
 20
113.063177951745
 42
0.0
  0
VERTEX
  8
0
 10
159.183446053
 20
113.149715513258
 42
0.0
  0
VERTEX
  8
0
 10
159.796041564764
 20
113.403460813967
 42
0.0
  0
VERTEX
  8
0
 10
160.322099515014
 20
113.807116501543
 42
0.0
  0
VERTEX
  8
0
 10
160.725729802659
 20
114.333174451793
 42
0.0
  0
VERTEX
  8
0
 10
160.979500503299
 20
114.945769963556
 42
0.0
  0
VERTEX
  8
0
 10
161.066038064811
 20
115.603170951842
 42
0.0
  0
VERTEX
  8
0
 10
160.979500503299
 20
116.260571940127
 42
0.0
  0
SEQEND
  0
POLYLINE
  8
0
 66
     1
 10
0.0
 20
0.0
 30
0.0
 70
     1
  0
VERTEX
  8
0
 10
113.481860000868
 20
116.873167451889
 42
0.0
  0
VERTEX
  8
0
 10
113.078229713222
 20
117.399200002208
 42
0.0
  0
VERTEX
  8
0
 10
112.552171762972
 20
117.802855689784
 42
0.0
  0
VERTEX
  8
0
 10
111.939576251209
 20
118.056600990495
 42
0.0
  0
VERTEX
  8
0
 10
111.282175262924
 20
118.143163951938
 42
0.0
  0
VERTEX
  8
0
 10
102.282199042235
 20
118.143163951938
 42
0.0
  0
VERTEX
  8
0
 10
101.62479805395
 20
118.056600990496
 42
0.0
  0
VERTEX
  8
0
 10
101.012202542186
 20
117.802855689785
 42
0.0
  0
VERTEX
  8
0
 10
100.486144591937
 20
117.399200002209
 42
0.0
  0
VERTEX
  8
0
 10
100.082488904362
 20
116.873167451889
 42
0.0
  0
VERTEX
  8
0
 10
99.8287436036524
 20
116.260571940126
 42
0.0
  0
VERTEX
  8
0
 10
99.7422060421374
 20
115.603170951841
 42
0.0
  0
VERTEX
  8
0
 10
99.8287436036506
 20
114.945769963556
 42
0.0
  0
VERTEX
  8
0
 10
100.082488904361
 20
114.333174451793
 42
0.0
  0
VERTEX
  8
0
 10
100.486144591937
 20
113.807116501543
 42
0.0
  0
VERTEX
  8
0
 10
101.012202542187
 20
113.403460813968
 42
0.0
  0
VERTEX
  8
0
 10
101.62479805395
 20
113.149715513259
 42
0.0
  0
VERTEX
  8
0
 10
102.282199042235
 20
113.063177951745
 42
0.0
  0
VERTEX
  8
0
 10
111.282175262924
 20
113.063177951745
 42
0.0
  0
VERTEX
  8
0
 10
111.939576251209
 20
113.149715513259
 42
0.0
  0
VERTEX
  8
0
 10
112.552171762972
 20
113.403460813967
 42
0.0
  0
VERTEX
  8
0
 10
113.078229713223
 20
113.807116501543
 42
0.0
  0
VERTEX
  8
0
 10
113.481860000868
 20
114.333174451793
 42
0.0
  0
VERTEX
  8
0
 10
113.735630701508
 20
114.945769963556
 42
0.0
  0
VERTEX
  8
0
 10
113.822168263019
 20
115.603170951841
 42
0.0
  0
VERTEX
  8
0
 10
113.735630701508
 20
116.260571940126
 42
0.0
  0
SEQEND
  0
POLYLINE
  8
0
 66
     1
 10
0.0
 20
0.0
 30
0.0
 70
     1
  0
VERTEX
  8
0
 10
165.890831248411
 20
164.061230886821
 42
0.0
  0
VERTEX
  8
0
 10
166.288127826415
 20
163.54346393777
 42
0.0
  0
VERTEX
  8
0
 10
166.805894799147
 20
163.146167390626
 42
0.0
  0
VERTEX
  8
0
 10
167.408847203062
 20
162.89641634851
 42
0.0
  0
VERTEX
  8
0
 10
168.05589482826
 20
162.811230932218
 42
0.0
  0
VERTEX
  8
0
 10
168.70294244838
 20
162.896416387078
 42
0.0
  0
VERTEX
  8
0
 10
169.305894837409
 20
163.146167465132
 42
0.0
  0
VERTEX
  8
0
 10
169.823661786459
 20
163.543464043137
 42
0.0
  0
VERTEX
  8
0
 10
170.220958333606
 20
164.061231015869
 42
0.0
  0
VERTEX
  8
0
 10
170.470709375719
 20
164.664183419785
 42
0.0
  0
VERTEX
  8
0
 10
170.555894792018
 20
165.311231044983
 42
0.0
  0
VERTEX
  8
0
 10
170.470709337154
 20
165.958278665104
 42
0.0
  0
VERTEX
  8
0
 10
170.2209582591
 20
166.561231054132
 42
0.0
  0
VERTEX
  8
0
 10
169.823661681092
 20
167.078998003181
 42
0.0
  0
VERTEX
  8
0
 10
169.30589470836
 20
167.476294550327
 42
0.0
  0
VERTEX
  8
0
 10
168.702942304445
 20
167.726045592441
 42
0.0
  0
VERTEX
  8
0
 10
168.055894679246
 20
167.811231008742
 42
0.0
  0
VERTEX
  8
0
 10
167.408847059126
 20
167.726045553873
 42
0.0
  0
VERTEX
  8
0
 10
166.805894670098
 20
167.47629447582
 42
0.0
  0
VERTEX
  8
0
 10
166.288127721048
 20
167.078997897814
 42
0.0
  0
VERTEX
  8
0
 10
165.890831173905
 20
166.561230925083
 42
0.0
  0
VERTEX
  8
0
 10
165.641080131791
 20
165.958278521167
 42
0.0
  0
VERTEX
  8
0
 10
165.555894715494
 20
165.31123089597
 42
0.0
  0
VERTEX
  8
0
 10
165.641080170356
 20
164.664183275848
 42
0.0
  0
SEQEND
  0
POLYLINE
  8
0
 66
     1
 10
0.0
 20
0.0
 30
0.0
 70
     1
  0
VERTEX
  8
0
 10
156.177506261088
 20
101.831300551147
 42
0.0
  0
VERTEX
  8
0
 10
152.899809689551
 20
106.102877913532
 42
0.0
  0
VERTEX
  8
0
 10
148.628232353049
 20
109.380574504941
 42
0.0
  0
VERTEX
  8
0
 10
143.65387518795
 20
111.441020719297
 42
0.0
  0
VERTEX
  8
0
 10
138.315732414542
 20
112.143800552148
 42
0.0
  0
VERTEX
  8
0
 10
121.815732022794
 20
112.143800062421
 42
0.0
  0
VERTEX
  8
0
 10
116.477589249387
 20
111.441020229565
 42
0.0
  0
VERTEX
  8
0
 10
111.503232084288
 20
109.380574015207
 42
0.0
  0
VERTEX
  8
0
 10
107.231654747788
 20
106.102877423803
 42
0.0
  0
VERTEX
  8
0
 10
103.953958176252
 20
101.831300061412
 42
0.0
  0
VERTEX
  8
0
 10
101.893511974383
 20
96.8569428661684
 42
0.0
  0
VERTEX
  8
0
 10
101.190732145788
 20
91.518800060408
 42
0.0
  0
VERTEX
  8
0
 10
101.893511974383
 20
86.1806572546481
 42
0.0
  0
VERTEX
  8
0
 10
103.953958176257
 20
81.206300059401
 42
0.0
  0
VERTEX
  8
0
 10
107.231654747794
 20
76.934722697011
 42
0.0
  0
VERTEX
  8
0
 10
111.503232084295
 20
73.657026105613
 42
0.0
  0
VERTEX
  8
0
 10
116.477589249395
 20
71.596579891251
 42
0.0
  0
VERTEX
  8
0
 10
121.815732022803
 20
70.893800058398
 42
0.0
  0
VERTEX
  8
0
 10
138.315732414551
 20
70.893800548124
 42
0.0
  0
VERTEX
  8
0
 10
143.653875187958
 20
71.596580380984
 42
0.0
  0
VERTEX
  8
0
 10
148.628232353055
 20
73.657026595347
 42
0.0
  0
VERTEX
  8
0
 10
152.899809689557
 20
76.93472318674
 42
0.0
  0
VERTEX
  8
0
 10
156.177506261093
 20
81.206300549134
 42
0.0
  0
VERTEX
  8
0
 10
158.237952462962
 20
86.1806577443833
 42
0.0
  0
VERTEX
  8
0
 10
158.94073229156
 20
91.5188005501417
 42
0.0
  0
VERTEX
  8
0
 10
158.237952462962
 20
96.8569433559047
 42
0.0
  0
SEQEND
  0
POLYLINE
  8
0
 66
     1
 10
0.0
 20
0.0
 30
0.0
 70
     1
  0
VERTEX
  8
0
 10
190.293036821174
 20
82.9342200118759
 42
0.0
  0
VERTEX
  8
0
 10
190.810803793904
 20
82.5369234647289
 42
0.0
  0
VERTEX
  8
0
 10
191.41375619782
 20
82.2871724226119
 42
0.0
  0
VERTEX
  8
0
 10
192.060803823018
 20
82.2019870063149
 42
0.0
  0
VERTEX
  8
0
 10
192.707851443139
 20
82.2871724611809
 42
0.0
  0
VERTEX
  8
0
 10
193.310803832167
 20
82.536923539234
 42
0.0
  0
VERTEX
  8
0
 10
193.828570781218
 20
82.934220117242
 42
0.0
  0
VERTEX
  8
0
 10
194.225867328366
 20
83.4519870899709
 42
0.0
  0
VERTEX
  8
0
 10
194.475618370479
 20
84.0549394938874
 42
0.0
  0
VERTEX
  8
0
 10
194.560803786777
 20
84.7019871190843
 42
0.0
  0
VERTEX
  8
0
 10
194.475618331912
 20
85.3490347392063
 42
0.0
  0
VERTEX
  8
0
 10
194.225867253859
 20
85.951987128234
 42
0.0
  0
VERTEX
  8
0
 10
193.828570675851
 20
86.4697540772848
 42
0.0
  0
VERTEX
  8
0
 10
193.310803703119
 20
86.8670506244288
 42
0.0
  0
VERTEX
  8
0
 10
192.707851299204
 20
87.1168016665434
 42
0.0
  0
VERTEX
  8
0
 10
192.060803674006
 20
87.2019870828394
 42
0.0
  0
VERTEX
  8
0
 10
191.413756053885
 20
87.116801627976
 42
0.0
  0
VERTEX
  8
0
 10
190.810803664857
 20
86.8670505499232
 42
0.0
  0
VERTEX
  8
0
 10
190.293036715807
 20
86.4697539719203
 42
0.0
  0
VERTEX
  8
0
 10
189.895740168664
 20
85.9519869991848
 42
0.0
  0
VERTEX
  8
0
 10
189.645989126549
 20
85.349034595269
 42
0.0
  0
VERTEX
  8
0
 10
189.560803710252
 20
84.701986970072
 42
0.0
  0
VERTEX
  8
0
 10
189.645989165116
 20
84.0549393499517
 42
0.0
  0
VERTEX
  8
0
 10
189.895740243171
 20
83.451986960923
 42
0.0
  0
SEQEND
  0
POLYLINE
  8
0
 66
     1
 10
0.0
 20
0.0
 30
0.0
 70
     1
  0
VERTEX
  8
0
 10
160.725729802659
 20
69.6292976500969
 42
0.0
  0
VERTEX
  8
0
 10
160.322099515014
 20
70.155330200418
 42
0.0
  0
VERTEX
  8
0
 10
159.796041564764
 20
70.5589858879929
 42
0.0
  0
VERTEX
  8
0
 10
159.183446053
 20
70.812731188703
 42
0.0
  0
VERTEX
  8
0
 10
158.526045064715
 20
70.8992941501469
 42
0.0
  0
VERTEX
  8
0
 10
149.526068844026
 20
70.899294150146
 42
0.0
  0
VERTEX
  8
0
 10
148.868667855741
 20
70.812731188704
 42
0.0
  0
VERTEX
  8
0
 10
148.256072343978
 20
70.558985887994
 42
0.0
  0
VERTEX
  8
0
 10
147.730014393728
 20
70.155330200419
 42
0.0
  0
VERTEX
  8
0
 10
147.326358706153
 20
69.629297650098
 42
0.0
  0
VERTEX
  8
0
 10
147.072613405443
 20
69.016702138335
 42
0.0
  0
VERTEX
  8
0
 10
146.98607584393
 20
68.35930115005
 42
0.0
  0
VERTEX
  8
0
 10
147.072613405443
 20
67.701900161765
 42
0.0
  0
VERTEX
  8
0
 10
147.326358706153
 20
67.089304650001
 42
0.0
  0
VERTEX
  8
0
 10
147.730014393729
 20
66.563246699752
 42
0.0
  0
VERTEX
  8
0
 10
148.256072343977
 20
66.159591012177
 42
0.0
  0
VERTEX
  8
0
 10
148.86866785574
 20
65.905845711468
 42
0.0
  0
VERTEX
  8
0
 10
149.526068844024
 20
65.819308149953
 42
0.0
  0
VERTEX
  8
0
 10
158.526045064714
 20
65.8193081499539
 42
0.0
  0
VERTEX
  8
0
 10
159.183446052999
 20
65.905845711467
 42
0.0
  0
VERTEX
  8
0
 10
159.796041564762
 20
66.159591012177
 42
0.0
  0
VERTEX
  8
0
 10
160.322099515014
 20
66.563246699752
 42
0.0
  0
VERTEX
  8
0
 10
160.72572980266
 20
67.0893046500009
 42
0.0
  0
VERTEX
  8
0
 10
160.979500503298
 20
67.701900161765
 42
0.0
  0
VERTEX
  8
0
 10
161.066038064812
 20
68.3593011500499
 42
0.0
  0
VERTEX
  8
0
 10
160.979500503299
 20
69.0167021383349
 42
0.0
  0
SEQEND
  0
POLYLINE
  8
0
 66
     1
 10
0.0
 20
0.0
 30
0.0
 70
     1
  0
VERTEX
  8
0
 10
566.75223227817
 20
130.697577245717
 42
0.0
  0
VERTEX
  8
0
 10
566.395737620425
 20
129.836923008071
 42
0.0
  0
VERTEX
  8
0
 10
566.274143931521
 20
128.913327245518
 42
0.0
  0
VERTEX
  8
0
 10
566.395737620422
 20
127.989731482967
 42
0.0
  0
VERTEX
  8
0
 10
566.752232278171
 20
127.129077245316
 42
0.0
  0
VERTEX
  8
0
 10
567.319333382975
 20
126.390016696566
 42
0.0
  0
VERTEX
  8
0
 10
568.058393931722
 20
125.822915591766
 42
0.0
  0
VERTEX
  8
0
 10
568.919048169371
 20
125.466420934018
 42
0.0
  0
VERTEX
  8
0
 10
569.842643931923
 20
125.344827245118
 42
0.0
  0
VERTEX
  8
0
 10
570.766239694475
 20
125.466420934018
 42
0.0
  0
VERTEX
  8
0
 10
571.626893932123
 20
125.822915591766
 42
0.0
  0
VERTEX
  8
0
 10
572.36595448087
 20
126.390016696567
 42
0.0
  0
VERTEX
  8
0
 10
572.933055585673
 20
127.129077245314
 42
0.0
  0
VERTEX
  8
0
 10
573.28955024342
 20
127.989731482964
 42
0.0
  0
VERTEX
  8
0
 10
573.411143932322
 20
128.913327245517
 42
0.0
  0
VERTEX
  8
0
 10
573.289550243424
 20
129.836923008068
 42
0.0
  0
VERTEX
  8
0
 10
572.933055585674
 20
130.697577245715
 42
0.0
  0
VERTEX
  8
0
 10
572.36595448087
 20
131.436637794462
 42
0.0
  0
VERTEX
  8
0
 10
571.626893932123
 20
132.00373889927
 42
0.0
  0
VERTEX
  8
0
 10
570.766239694474
 20
132.360233557017
 42
0.0
  0
VERTEX
  8
0
 10
569.842643931922
 20
132.481827245918
 42
0.0
  0
VERTEX
  8
0
 10
568.919048169371
 20
132.360233557016
 42
0.0
  0
VERTEX
  8
0
 10
568.058393931723
 20
132.003738899269
 42
0.0
  0
VERTEX
  8
0
 10
567.319333382975
 20
131.43663779446
 42
0.0
  0
SEQEND
  0
POLYLINE
  8
0
 66
     1
 10
0.0
 20
0.0
 30
0.0
 70
     1
  0
VERTEX
  8
0
 10
582.413042078885
 20
3.3173531589351
 42
0.0
  0
VERTEX
  8
0
 10
582.123013598924
 20
2.9866390608957
 42
0.0
  0
VERTEX
  8
0
 10
581.792299500884
 20
2.6966105809357
 42
0.0
  0
VERTEX
  8
0
 10
581.426558394671
 20
2.4522301867566
 42
0.0
  0
VERTEX
  8
0
 10
581.03204821202
 20
2.2576792946585
 42
0.0
  0
VERTEX
  8
0
 10
580.615519131532
 20
2.1162867243447
 42
0.0
  0
VERTEX
  8
0
 10
580.184098081257
 20
2.0304717418986
 42
0.0
  0
VERTEX
  8
0
 10
579.745166794981
 20
2.0017026654589
 42
0.0
  0
VERTEX
  8
0
 10
562.569298153714
 20
2.0085084162334
 42
0.0
  0
VERTEX
  8
0
 10
561.972984001947
 20
2.0249153302961
 42
0.0
  0
VERTEX
  8
0
 10
561.378485053659
 20
2.0742180169589
 42
0.0
  0
VERTEX
  8
0
 10
560.787614621804
 20
2.1562660954679
 42
0.0
  0
VERTEX
  8
0
 10
560.202174951803
 20
2.2708093066023
 42
0.0
  0
VERTEX
  8
0
 10
559.623951724422
 20
2.4174982760048
 42
0.0
  0
VERTEX
  8
0
 10
559.054708609169
 20
2.5958855798241
 42
0.0
  0
VERTEX
  8
0
 10
558.496181884832
 20
2.80542710943
 42
0.0
  0
VERTEX
  8
0
 10
557.950075143567
 20
3.0454837310264
 42
0.0
  0
VERTEX
  8
0
 10
557.418054094674
 20
3.3153232351073
 42
0.0
  0
VERTEX
  8
0
 10
556.402712143978
 20
3.9409703513376
 42
0.0
  0
VERTEX
  8
0
 10
555.922488190817
 20
4.2948696438454
 42
0.0
  0
VERTEX
  8
0
 10
541.983604648892
 20
14.0087472517587
 42
0.0
  0
VERTEX
  8
0
 10
516.436291698745
 20
14.000425666365
 42
0.0
  0
VERTEX
  8
0
 10
503.101957995916
 20
4.7081827997795
 42
0.0
  0
VERTEX
  8
0
 10
501.804723643898
 20
3.8986674742856
 42
0.0
  0
VERTEX
  8
0
 10
501.127002271762
 20
3.5442626320627
 42
0.0
  0
VERTEX
  8
0
 10
500.432185761193
 20
3.2246705998069
 42
0.0
  0
VERTEX
  8
0
 10
499.722060930104
 20
2.9407132531654
 42
0.0
  0
VERTEX
  8
0
 10
498.998453963898
 20
2.6931208282015
 42
0.0
  0
VERTEX
  8
0
 10
498.263225719177
 20
2.4825300434935
 42
0.0
  0
VERTEX
  8
0
 10
497.518266938284
 20
2.30948246272
 42
0.0
  0
VERTEX
  8
0
 10
496.765493387001
 20
2.1744231019579
 42
0.0
  0
VERTEX
  8
0
 10
496.006840927885
 20
2.0776992852595
 42
0.0
  0
VERTEX
  8
0
 10
495.244260541925
 20
2.0195597514572
 42
0.0
  0
VERTEX
  8
0
 10
494.479713311328
 20
2.0001540145004
 42
0.0
  0
VERTEX
  8
0
 10
486.0
 20
2.0
 42
0.0
  0
VERTEX
  8
0
 10
484.745900326435
 20
2.0821980353218
 42
0.0
  0
VERTEX
  8
0
 10
483.513258645987
 20
2.3273857101108
 42
0.0
  0
VERTEX
  8
0
 10
482.323165799561
 20
2.7313677952728
 42
0.0
  0
VERTEX
  8
0
 10
481.195984605715
 20
3.2872320453263
 42
0.0
  0
VERTEX
  8
0
 10
480.151001447191
 20
3.9854674688375
 42
0.0
  0
VERTEX
  8
0
 10
479.206096275553
 20
4.814127064124
 42
0.0
  0
VERTEX
  8
0
 10
478.377436680267
 20
5.759032235761
 42
0.0
  0
VERTEX
  8
0
 10
477.679201256756
 20
6.8040153942855
 42
0.0
  0
VERTEX
  8
0
 10
477.123337006703
 20
7.9311965881307
 42
0.0
  0
VERTEX
  8
0
 10
476.719354921541
 20
9.1212894345568
 42
0.0
  0
VERTEX
  8
0
 10
476.474167246753
 20
10.3539311150049
 42
0.0
  0
VERTEX
  8
0
 10
476.391969211431
 20
11.6080307885698
 42
0.0
  0
VERTEX
  8
0
 10
476.391969211432
 20
52.5444707803853
 42
0.0
  0
VERTEX
  8
0
 10
488.60936896395
 20
67.0217026652956
 42
0.0
  0
VERTEX
  8
0
 10
488.60936896395
 20
77.0217026652962
 42
0.0
  0
VERTEX
  8
0
 10
476.391969211432
 20
91.5260809749134
 42
0.0
  0
VERTEX
  8
0
 10
476.391969211432
 20
132.43367187655
 42
0.0
  0
VERTEX
  8
0
 10
476.474167246753
 20
133.687771550115
 42
0.0
  0
VERTEX
  8
0
 10
476.719354921541
 20
134.920413230564
 42
0.0
  0
VERTEX
  8
0
 10
477.123337006703
 20
136.11050607699
 42
0.0
  0
VERTEX
  8
0
 10
477.679201256756
 20
137.237687270835
 42
0.0
  0
VERTEX
  8
0
 10
478.377436680267
 20
138.282670429359
 42
0.0
  0
VERTEX
  8
0
 10
479.206096275553
 20
139.227575600996
 42
0.0
  0
VERTEX
  8
0
 10
480.151001447191
 20
140.056235196283
 42
0.0
  0
VERTEX
  8
0
 10
481.195984605715
 20
140.754470619794
 42
0.0
  0
VERTEX
  8
0
 10
482.323165799561
 20
141.310334869848
 42
0.0
  0
VERTEX
  8
0
 10
483.513258645987
 20
141.71431695501
 42
0.0
  0
VERTEX
  8
0
 10
484.745900326435
 20
141.959504629799
 42
0.0
  0
VERTEX
  8
0
 10
485.999999999999
 20
142.04170266512
 42
0.0
  0
VERTEX
  8
0
 10
495.244260541925
 20
142.040432495031
 42
0.0
  0
VERTEX
  8
0
 10
496.006840927885
 20
141.982292961229
 42
0.0
  0
VERTEX
  8
0
 10
496.765493387001
 20
141.88556914453
 42
0.0
  0
VERTEX
  8
0
 10
497.518266938284
 20
141.750509783768
 42
0.0
  0
VERTEX
  8
0
 10
498.263225719177
 20
141.577462202995
 42
0.0
  0
VERTEX
  8
0
 10
498.998453963898
 20
141.366871418286
 42
0.0
  0
VERTEX
  8
0
 10
499.722060930104
 20
141.119278993322
 42
0.0
  0
VERTEX
  8
0
 10
500.432185761193
 20
140.83532164668
 42
0.0
  0
VERTEX
  8
0
 10
501.127002271762
 20
140.515729614426
 42
0.0
  0
VERTEX
  8
0
 10
501.804723643898
 20
140.161324772203
 42
0.0
  0
VERTEX
  8
0
 10
503.101957995916
 20
139.351809446709
 42
0.0
  0
VERTEX
  8
0
 10
516.436291698745
 20
130.059566580123
 42
0.0
  0
VERTEX
  8
0
 10
541.983604648892
 20
130.067036832787
 42
0.0
  0
VERTEX
  8
0
 10
555.922488190817
 20
139.780914440701
 42
0.0
  0
VERTEX
  8
0
 10
556.402712143978
 20
140.134813733209
 42
0.0
  0
VERTEX
  8
0
 10
557.418054094674
 20
140.760460849439
 42
0.0
  0
VERTEX
  8
0
 10
557.950075143567
 20
141.03030035352
 42
0.0
  0
VERTEX
  8
0
 10
558.496181884832
 20
141.270356975117
 42
0.0
  0
VERTEX
  8
0
 10
559.054708609169
 20
141.479898504723
 42
0.0
  0
VERTEX
  8
0
 10
559.623951724422
 20
141.658285808542
 42
0.0
  0
VERTEX
  8
0
 10
560.202174951803
 20
141.804974777944
 42
0.0
  0
VERTEX
  8
0
 10
560.787614621804
 20
141.919517989078
 42
0.0
  0
VERTEX
  8
0
 10
561.378485053659
 20
142.001566067587
 42
0.0
  0
VERTEX
  8
0
 10
561.972984001947
 20
142.050868754251
 42
0.0
  0
VERTEX
  8
0
 10
579.745166794986
 20
142.041702665134
 42
0.0
  0
VERTEX
  8
0
 10
580.184098081262
 20
142.012933588693
 42
0.0
  0
VERTEX
  8
0
 10
580.615519131536
 20
141.927118606246
 42
0.0
  0
VERTEX
  8
0
 10
581.032048212023
 20
141.785726035936
 42
0.0
  0
VERTEX
  8
0
 10
581.426558394675
 20
141.59117514384
 42
0.0
  0
VERTEX
  8
0
 10
581.792299500887
 20
141.346794749659
 42
0.0
  0
VERTEX
  8
0
 10
582.123013598928
 20
141.0567662697
 42
0.0
  0
VERTEX
  8
0
 10
582.413042078889
 20
140.726052171658
 42
0.0
  0
VERTEX
  8
0
 10
582.657422473069
 20
140.360311065448
 42
0.0
  0
VERTEX
  8
0
 10
582.851973365167
 20
139.965800882797
 42
0.0
  0
VERTEX
  8
0
 10
582.993365935477
 20
139.54927180231
 42
0.0
  0
VERTEX
  8
0
 10
583.079180917925
 20
139.117850752034
 42
0.0
  0
VERTEX
  8
0
 10
583.107949994366
 20
138.678919465758
 42
0.0
  0
VERTEX
  8
0
 10
583.107949994365
 20
91.526080974913
 42
0.0
  0
VERTEX
  8
0
 10
570.890550241847
 20
77.0217026652958
 42
0.0
  0
VERTEX
  8
0
 10
570.890550241847
 20
67.0217026652959
 42
0.0
  0
VERTEX
  8
0
 10
583.107949994365
 20
52.5444707803849
 42
0.0
  0
VERTEX
  8
0
 10
583.107949994361
 20
5.3644858648335
 42
0.0
  0
VERTEX
  8
0
 10
583.079180917921
 20
4.9255545785577
 42
0.0
  0
VERTEX
  8
0
 10
582.993365935473
 20
4.4941335282837
 42
0.0
  0
VERTEX
  8
0
 10
582.851973365161
 20
4.0776044477951
 42
0.0
  0
VERTEX
  8
0
 10
582.657422473063
 20
3.683094265144
 42
0.0
  0
SEQEND
  0
POLYLINE
  8
0
 66
     1
 10
0.0
 20
0.0
 30
0.0
 70
     1
  0
VERTEX
  8
0
 10
487.87758042173
 20
102.694827664488
 42
0.0
  0
VERTEX
  8
0
 10
488.274876978425
 20
102.177060711261
 42
0.0
  0
VERTEX
  8
0
 10
488.792643931652
 20
101.779764154568
 42
0.0
  0
VERTEX
  8
0
 10
489.3955963192
 20
101.530013098179
 42
0.0
  0
VERTEX
  8
0
 10
490.042643932283
 20
101.444827663858
 42
0.0
  0
VERTEX
  8
0
 10
490.689691545365
 20
101.530013098178
 42
0.0
  0
VERTEX
  8
0
 10
491.292643932912
 20
101.779764154567
 42
0.0
  0
VERTEX
  8
0
 10
491.81041088614
 20
102.177060711263
 42
0.0
  0
VERTEX
  8
0
 10
492.207707442834
 20
102.69482766449
 42
0.0
  0
VERTEX
  8
0
 10
492.457458499221
 20
103.297780052035
 42
0.0
  0
VERTEX
  8
0
 10
492.542643933542
 20
103.944827665118
 42
0.0
  0
VERTEX
  8
0
 10
492.457458499222
 20
104.5918752782
 42
0.0
  0
VERTEX
  8
0
 10
492.207707442836
 20
105.194827665751
 42
0.0
  0
VERTEX
  8
0
 10
491.810410886141
 20
105.712594618978
 42
0.0
  0
VERTEX
  8
0
 10
491.292643932913
 20
106.109891175673
 42
0.0
  0
VERTEX
  8
0
 10
490.689691545365
 20
106.359642232059
 42
0.0
  0
VERTEX
  8
0
 10
490.042643932283
 20
106.444827666379
 42
0.0
  0
VERTEX
  8
0
 10
489.3955963192
 20
106.359642232059
 42
0.0
  0
VERTEX
  8
0
 10
488.792643931653
 20
106.109891175673
 42
0.0
  0
VERTEX
  8
0
 10
488.274876978426
 20
105.712594618976
 42
0.0
  0
VERTEX
  8
0
 10
487.877580421732
 20
105.194827665749
 42
0.0
  0
VERTEX
  8
0
 10
487.627829365343
 20
104.591875278198
 42
0.0
  0
VERTEX
  8
0
 10
487.542643931022
 20
103.944827665116
 42
0.0
  0
VERTEX
  8
0
 10
487.627829365342
 20
103.297780052032
 42
0.0
  0
SEQEND
  0
POLYLINE
  8
0
 66
     1
 10
0.0
 20
0.0
 30
0.0
 70
     1
  0
VERTEX
  8
0
 10
572.933055585669
 20
16.9143280852737
 42
0.0
  0
VERTEX
  8
0
 10
572.365954480868
 20
17.6533886340195
 42
0.0
  0
VERTEX
  8
0
 10
571.626893932121
 20
18.2204897388279
 42
0.0
  0
VERTEX
  8
0
 10
570.76623969447
 20
18.5769843965764
 42
0.0
  0
VERTEX
  8
0
 10
569.842643931917
 20
18.6985780854777
 42
0.0
  0
VERTEX
  8
0
 10
568.919048169367
 20
18.5769843965757
 42
0.0
  0
VERTEX
  8
0
 10
568.05839393172
 20
18.2204897388279
 42
0.0
  0
VERTEX
  8
0
 10
567.319333382973
 20
17.6533886340188
 42
0.0
  0
VERTEX
  8
0
 10
566.752232278166
 20
16.9143280852781
 42
0.0
  0
VERTEX
  8
0
 10
566.395737620418
 20
16.0536738476296
 42
0.0
  0
VERTEX
  8
0
 10
566.274143931516
 20
15.1300780850777
 42
0.0
  0
VERTEX
  8
0
 10
566.395737620419
 20
14.2064823225259
 42
0.0
  0
VERTEX
  8
0
 10
566.752232278168
 20
13.3458280848774
 42
0.0
  0
VERTEX
  8
0
 10
567.319333382969
 20
12.6067675361251
 42
0.0
  0
VERTEX
  8
0
 10
568.058393931716
 20
12.0396664313253
 42
0.0
  0
VERTEX
  8
0
 10
568.919048169366
 20
11.6831717735776
 42
0.0
  0
VERTEX
  8
0
 10
569.842643931917
 20
11.5615780846777
 42
0.0
  0
VERTEX
  8
0
 10
570.76623969447
 20
11.6831717735783
 42
0.0
  0
VERTEX
  8
0
 10
571.626893932117
 20
12.039666431326
 42
0.0
  0
VERTEX
  8
0
 10
572.365954480864
 20
12.6067675361251
 42
0.0
  0
VERTEX
  8
0
 10
572.933055585671
 20
13.3458280848738
 42
0.0
  0
VERTEX
  8
0
 10
573.289550243418
 20
14.2064823225237
 42
0.0
  0
VERTEX
  8
0
 10
573.411143932317
 20
15.1300780850755
 42
0.0
  0
VERTEX
  8
0
 10
573.289550243417
 20
16.0536738476282
 42
0.0
  0
SEQEND
  0
POLYLINE
  8
0
 66
     1
 10
0.0
 20
0.0
 30
0.0
 70
     1
  0
VERTEX
  8
0
 10
506.692539140439
 20
113.604113926764
 42
0.0
  0
VERTEX
  8
0
 10
506.336044482693
 20
112.743459689118
 42
0.0
  0
VERTEX
  8
0
 10
506.214450793789
 20
111.819863926566
 42
0.0
  0
VERTEX
  8
0
 10
506.33604448269
 20
110.896268164014
 42
0.0
  0
VERTEX
  8
0
 10
506.692539140439
 20
110.035613926364
 42
0.0
  0
VERTEX
  8
0
 10
507.259640245243
 20
109.296553377613
 42
0.0
  0
VERTEX
  8
0
 10
507.99870079399
 20
108.729452272813
 42
0.0
  0
VERTEX
  8
0
 10
508.859355031639
 20
108.372957615065
 42
0.0
  0
VERTEX
  8
0
 10
509.782950794191
 20
108.251363926165
 42
0.0
  0
VERTEX
  8
0
 10
510.706546556743
 20
108.372957615066
 42
0.0
  0
VERTEX
  8
0
 10
511.567200794391
 20
108.729452272813
 42
0.0
  0
VERTEX
  8
0
 10
512.306261343138
 20
109.296553377614
 42
0.0
  0
VERTEX
  8
0
 10
512.873362447941
 20
110.035613926361
 42
0.0
  0
VERTEX
  8
0
 10
513.229857105689
 20
110.896268164011
 42
0.0
  0
VERTEX
  8
0
 10
513.35145079459
 20
111.819863926564
 42
0.0
  0
VERTEX
  8
0
 10
513.229857105692
 20
112.743459689115
 42
0.0
  0
VERTEX
  8
0
 10
512.873362447942
 20
113.604113926761
 42
0.0
  0
VERTEX
  8
0
 10
512.306261343138
 20
114.343174475508
 42
0.0
  0
VERTEX
  8
0
 10
511.567200794391
 20
114.910275580317
 42
0.0
  0
VERTEX
  8
0
 10
510.706546556742
 20
115.266770238063
 42
0.0
  0
VERTEX
  8
0
 10
509.78295079419
 20
115.388363926965
 42
0.0
  0
VERTEX
  8
0
 10
508.859355031639
 20
115.266770238062
 42
0.0
  0
VERTEX
  8
0
 10
507.998700793991
 20
114.910275580315
 42
0.0
  0
VERTEX
  8
0
 10
507.259640245243
 20
114.343174475507
 42
0.0
  0
SEQEND
  0
POLYLINE
  8
0
 66
     1
 10
0.0
 20
0.0
 30
0.0
 70
     1
  0
VERTEX
  8
0
 10
527.617887283634
 20
80.8008553463814
 42
0.0
  0
VERTEX
  8
0
 10
528.015183840329
 20
80.2830883931547
 42
0.0
  0
VERTEX
  8
0
 10
528.532950793556
 20
79.8857918364609
 42
0.0
  0
VERTEX
  8
0
 10
529.135903181104
 20
79.6360407800721
 42
0.0
  0
VERTEX
  8
0
 10
529.782950794187
 20
79.5508553457511
 42
0.0
  0
VERTEX
  8
0
 10
530.429998407269
 20
79.6360407800714
 42
0.0
  0
VERTEX
  8
0
 10
531.032950794816
 20
79.8857918364601
 42
0.0
  0
VERTEX
  8
0
 10
531.550717748043
 20
80.2830883931561
 42
0.0
  0
VERTEX
  8
0
 10
531.948014304739
 20
80.8008553463829
 42
0.0
  0
VERTEX
  8
0
 10
532.197765361125
 20
81.4038077339281
 42
0.0
  0
VERTEX
  8
0
 10
532.282950795446
 20
82.0508553470107
 42
0.0
  0
VERTEX
  8
0
 10
532.197765361127
 20
82.6979029600932
 42
0.0
  0
VERTEX
  8
0
 10
531.948014304741
 20
83.3008553476428
 42
0.0
  0
VERTEX
  8
0
 10
531.550717748046
 20
83.8186223008702
 42
0.0
  0
VERTEX
  8
0
 10
531.032950794818
 20
84.2159188575648
 42
0.0
  0
VERTEX
  8
0
 10
530.429998407269
 20
84.4656699139513
 42
0.0
  0
VERTEX
  8
0
 10
529.782950794188
 20
84.5508553482709
 42
0.0
  0
VERTEX
  8
0
 10
529.135903181105
 20
84.4656699139513
 42
0.0
  0
VERTEX
  8
0
 10
528.532950793558
 20
84.2159188575655
 42
0.0
  0
VERTEX
  8
0
 10
528.015183840331
 20
83.8186223008688
 42
0.0
  0
VERTEX
  8
0
 10
527.617887283637
 20
83.3008553476413
 42
0.0
  0
VERTEX
  8
0
 10
527.368136227248
 20
82.697902960091
 42
0.0
  0
VERTEX
  8
0
 10
527.282950792926
 20
82.0508553470085
 42
0.0
  0
VERTEX
  8
0
 10
527.368136227246
 20
81.4038077339252
 42
0.0
  0
SEQEND
  0
POLYLINE
  8
0
 66
     1
 10
0.0
 20
0.0
 30
0.0
 70
     1
  0
VERTEX
  8
0
 10
558.25788718047
 20
110.569863925937
 42
0.0
  0
VERTEX
  8
0
 10
558.655183737165
 20
110.052096972711
 42
0.0
  0
VERTEX
  8
0
 10
559.172950690393
 20
109.654800416016
 42
0.0
  0
VERTEX
  8
0
 10
559.775903077941
 20
109.405049359627
 42
0.0
  0
VERTEX
  8
0
 10
560.422950691024
 20
109.319863925307
 42
0.0
  0
VERTEX
  8
0
 10
561.069998304106
 20
109.405049359627
 42
0.0
  0
VERTEX
  8
0
 10
561.672950691653
 20
109.654800416015
 42
0.0
  0
VERTEX
  8
0
 10
562.19071764488
 20
110.052096972712
 42
0.0
  0
VERTEX
  8
0
 10
562.588014201575
 20
110.569863925939
 42
0.0
  0
VERTEX
  8
0
 10
562.837765257962
 20
111.172816313484
 42
0.0
  0
VERTEX
  8
0
 10
562.922950692282
 20
111.819863926566
 42
0.0
  0
VERTEX
  8
0
 10
562.837765257963
 20
112.466911539648
 42
0.0
  0
VERTEX
  8
0
 10
562.588014201577
 20
113.069863927199
 42
0.0
  0
VERTEX
  8
0
 10
562.190717644881
 20
113.587630880426
 42
0.0
  0
VERTEX
  8
0
 10
561.672950691653
 20
113.98492743712
 42
0.0
  0
VERTEX
  8
0
 10
561.069998304105
 20
114.234678493506
 42
0.0
  0
VERTEX
  8
0
 10
560.422950691024
 20
114.319863927827
 42
0.0
  0
VERTEX
  8
0
 10
559.775903077941
 20
114.234678493506
 42
0.0
  0
VERTEX
  8
0
 10
559.172950690394
 20
113.984927437121
 42
0.0
  0
VERTEX
  8
0
 10
558.655183737167
 20
113.587630880425
 42
0.0
  0
VERTEX
  8
0
 10
558.257887180472
 20
113.069863927197
 42
0.0
  0
VERTEX
  8
0
 10
558.008136124084
 20
112.466911539647
 42
0.0
  0
VERTEX
  8
0
 10
557.922950689762
 20
111.819863926564
 42
0.0
  0
VERTEX
  8
0
 10
558.008136124083
 20
111.172816313481
 42
0.0
  0
SEQEND
  0
POLYLINE
  8
0
 66
     1
 10
0.0
 20
0.0
 30
0.0
 70
     1
  0
VERTEX
  8
0
 10
487.62782936534
 20
14.4515300523879
 42
0.0
  0
VERTEX
  8
0
 10
487.877580421727
 20
13.8485776648441
 42
0.0
  0
VERTEX
  8
0
 10
488.274876978424
 20
13.3308107116166
 42
0.0
  0
VERTEX
  8
0
 10
488.792643931649
 20
12.9335141549242
 42
0.0
  0
VERTEX
  8
0
 10
489.395596319198
 20
12.6837630985348
 42
0.0
  0
VERTEX
  8
0
 10
490.04264393228
 20
12.5985776642138
 42
0.0
  0
VERTEX
  8
0
 10
490.689691545362
 20
12.6837630985341
 42
0.0
  0
VERTEX
  8
0
 10
491.292643932909
 20
12.9335141549221
 42
0.0
  0
VERTEX
  8
0
 10
491.810410886139
 20
13.3308107116188
 42
0.0
  0
VERTEX
  8
0
 10
492.207707442831
 20
13.8485776648455
 42
0.0
  0
VERTEX
  8
0
 10
492.457458499219
 20
14.4515300523929
 42
0.0
  0
VERTEX
  8
0
 10
492.542643933539
 20
15.0985776654726
 42
0.0
  0
VERTEX
  8
0
 10
492.457458499218
 20
15.745625278558
 42
0.0
  0
VERTEX
  8
0
 10
492.207707442831
 20
16.3485776661054
 42
0.0
  0
VERTEX
  8
0
 10
491.810410886136
 20
16.8663446193336
 42
0.0
  0
VERTEX
  8
0
 10
491.29264393291
 20
17.2636411760267
 42
0.0
  0
VERTEX
  8
0
 10
490.689691545362
 20
17.5133922324133
 42
0.0
  0
VERTEX
  8
0
 10
490.04264393228
 20
17.5985776667344
 42
0.0
  0
VERTEX
  8
0
 10
489.395596319197
 20
17.513392232414
 42
0.0
  0
VERTEX
  8
0
 10
488.79264393165
 20
17.2636411760281
 42
0.0
  0
VERTEX
  8
0
 10
488.274876978421
 20
16.8663446193314
 42
0.0
  0
VERTEX
  8
0
 10
487.877580421726
 20
16.348577666104
 42
0.0
  0
VERTEX
  8
0
 10
487.627829365339
 20
15.745625278553
 42
0.0
  0
VERTEX
  8
0
 10
487.542643931019
 20
15.0985776654704
 42
0.0
  0
SEQEND
  0
POLYLINE
  8
0
 66
     1
 10
0.0
 20
0.0
 30
0.0
 70
     1
  0
VERTEX
  8
0
 10
558.257887180481
 20
30.7824016342024
 42
0.0
  0
VERTEX
  8
0
 10
558.655183737176
 20
30.2646346809757
 42
0.0
  0
VERTEX
  8
0
 10
559.172950690403
 20
29.8673381242819
 42
0.0
  0
VERTEX
  8
0
 10
559.775903077951
 20
29.6175870678931
 42
0.0
  0
VERTEX
  8
0
 10
560.422950691034
 20
29.5324016335725
 42
0.0
  0
VERTEX
  8
0
 10
561.069998304116
 20
29.6175870678924
 42
0.0
  0
VERTEX
  8
0
 10
561.672950691663
 20
29.8673381242811
 42
0.0
  0
VERTEX
  8
0
 10
562.190717644891
 20
30.2646346809772
 42
0.0
  0
VERTEX
  8
0
 10
562.588014201586
 20
30.7824016342031
 42
0.0
  0
VERTEX
  8
0
 10
562.837765257972
 20
31.3853540217491
 42
0.0
  0
VERTEX
  8
0
 10
562.922950692293
 20
32.0324016348317
 42
0.0
  0
VERTEX
  8
0
 10
562.837765257974
 20
32.6794492479142
 42
0.0
  0
VERTEX
  8
0
 10
562.588014201588
 20
33.282401635463
 42
0.0
  0
VERTEX
  8
0
 10
562.190717644892
 20
33.8001685886913
 42
0.0
  0
VERTEX
  8
0
 10
561.672950691664
 20
34.1974651453858
 42
0.0
  0
VERTEX
  8
0
 10
561.069998304116
 20
34.4472162017723
 42
0.0
  0
VERTEX
  8
0
 10
560.422950691035
 20
34.5324016360922
 42
0.0
  0
VERTEX
  8
0
 10
559.775903077951
 20
34.4472162017723
 42
0.0
  0
VERTEX
  8
0
 10
559.172950690405
 20
34.1974651453866
 42
0.0
  0
VERTEX
  8
0
 10
558.655183737178
 20
33.8001685886898
 42
0.0
  0
VERTEX
  8
0
 10
558.257887180483
 20
33.2824016354623
 42
0.0
  0
VERTEX
  8
0
 10
558.008136124094
 20
32.679449247912
 42
0.0
  0
VERTEX
  8
0
 10
557.922950689773
 20
32.0324016348295
 42
0.0
  0
VERTEX
  8
0
 10
558.008136124093
 20
31.3853540217462
 42
0.0
  0
SEQEND
  0
POLYLINE
  8
0
 66
     1
 10
0.0
 20
0.0
 30
0.0
 70
     1
  0
VERTEX
  8
0
 10
487.87758042173
 20
127.694827664488
 42
0.0
  0
VERTEX
  8
0
 10
488.274876978425
 20
127.177060711262
 42
0.0
  0
VERTEX
  8
0
 10
488.792643931652
 20
126.779764154568
 42
0.0
  0
VERTEX
  8
0
 10
489.3955963192
 20
126.530013098179
 42
0.0
  0
VERTEX
  8
0
 10
490.042643932283
 20
126.444827663859
 42
0.0
  0
VERTEX
  8
0
 10
490.689691545365
 20
126.530013098179
 42
0.0
  0
VERTEX
  8
0
 10
491.292643932912
 20
126.779764154568
 42
0.0
  0
VERTEX
  8
0
 10
491.81041088614
 20
127.177060711263
 42
0.0
  0
VERTEX
  8
0
 10
492.207707442834
 20
127.69482766449
 42
0.0
  0
VERTEX
  8
0
 10
492.457458499221
 20
128.297780052035
 42
0.0
  0
VERTEX
  8
0
 10
492.542643933541
 20
128.944827665118
 42
0.0
  0
VERTEX
  8
0
 10
492.457458499222
 20
129.5918752782
 42
0.0
  0
VERTEX
  8
0
 10
492.207707442837
 20
130.194827665751
 42
0.0
  0
VERTEX
  8
0
 10
491.810410886141
 20
130.712594618978
 42
0.0
  0
VERTEX
  8
0
 10
491.292643932913
 20
131.109891175673
 42
0.0
  0
VERTEX
  8
0
 10
490.689691545365
 20
131.359642232059
 42
0.0
  0
VERTEX
  8
0
 10
490.042643932283
 20
131.444827666379
 42
0.0
  0
VERTEX
  8
0
 10
489.3955963192
 20
131.35964223206
 42
0.0
  0
VERTEX
  8
0
 10
488.792643931653
 20
131.109891175673
 42
0.0
  0
VERTEX
  8
0
 10
488.274876978426
 20
130.712594618976
 42
0.0
  0
VERTEX
  8
0
 10
487.877580421732
 20
130.194827665748
 42
0.0
  0
VERTEX
  8
0
 10
487.627829365343
 20
129.591875278198
 42
0.0
  0
VERTEX
  8
0
 10
487.542643931022
 20
128.944827665115
 42
0.0
  0
VERTEX
  8
0
 10
487.627829365342
 20
128.297780052032
 42
0.0
  0
SEQEND
  0
POLYLINE
  8
0
 66
     1
 10
0.0
 20
0.0
 30
0.0
 70
     1
  0
VERTEX
  8
0
 10
537.942426139218
 20
30.769380177759
 42
0.0
  0
VERTEX
  8
0
 10
538.339722695913
 20
30.2516132245315
 42
0.0
  0
VERTEX
  8
0
 10
538.857489649141
 20
29.8543166678377
 42
0.0
  0
VERTEX
  8
0
 10
539.460442036688
 20
29.6045656114494
 42
0.0
  0
VERTEX
  8
0
 10
540.107489649771
 20
29.5193801771283
 42
0.0
  0
VERTEX
  8
0
 10
540.754537262853
 20
29.604565611449
 42
0.0
  0
VERTEX
  8
0
 10
541.3574896504
 20
29.8543166678377
 42
0.0
  0
VERTEX
  8
0
 10
541.875256603627
 20
30.2516132245337
 42
0.0
  0
VERTEX
  8
0
 10
542.272553160323
 20
30.7693801777604
 42
0.0
  0
VERTEX
  8
0
 10
542.522304216709
 20
31.3723325653056
 42
0.0
  0
VERTEX
  8
0
 10
542.60748965103
 20
32.0193801783882
 42
0.0
  0
VERTEX
  8
0
 10
542.522304216711
 20
32.6664277914708
 42
0.0
  0
VERTEX
  8
0
 10
542.272553160325
 20
33.2693801790203
 42
0.0
  0
VERTEX
  8
0
 10
541.875256603629
 20
33.7871471322478
 42
0.0
  0
VERTEX
  8
0
 10
541.357489650402
 20
34.1844436889423
 42
0.0
  0
VERTEX
  8
0
 10
540.754537262853
 20
34.4341947453289
 42
0.0
  0
VERTEX
  8
0
 10
540.107489649772
 20
34.5193801796481
 42
0.0
  0
VERTEX
  8
0
 10
539.460442036689
 20
34.4341947453278
 42
0.0
  0
VERTEX
  8
0
 10
538.857489649142
 20
34.1844436889423
 42
0.0
  0
VERTEX
  8
0
 10
538.339722695915
 20
33.7871471322456
 42
0.0
  0
VERTEX
  8
0
 10
537.94242613922
 20
33.2693801790189
 42
0.0
  0
VERTEX
  8
0
 10
537.692675082832
 20
32.6664277914686
 42
0.0
  0
VERTEX
  8
0
 10
537.60748964851
 20
32.019380178386
 42
0.0
  0
VERTEX
  8
0
 10
537.69267508283
 20
31.3723325653028
 42
0.0
  0
SEQEND
  0
POLYLINE
  8
0
 66
     1
 10
0.0
 20
0.0
 30
0.0
 70
     1
  0
VERTEX
  8
0
 10
537.017077996009
 20
113.604113926764
 42
0.0
  0
VERTEX
  8
0
 10
536.660583338264
 20
112.743459689118
 42
0.0
  0
VERTEX
  8
0
 10
536.538989649359
 20
111.819863926566
 42
0.0
  0
VERTEX
  8
0
 10
536.66058333826
 20
110.896268164014
 42
0.0
  0
VERTEX
  8
0
 10
537.017077996009
 20
110.035613926364
 42
0.0
  0
VERTEX
  8
0
 10
537.584179100813
 20
109.296553377614
 42
0.0
  0
VERTEX
  8
0
 10
538.32323964956
 20
108.729452272813
 42
0.0
  0
VERTEX
  8
0
 10
539.183893887209
 20
108.372957615064
 42
0.0
  0
VERTEX
  8
0
 10
540.107489649761
 20
108.251363926164
 42
0.0
  0
VERTEX
  8
0
 10
541.031085412313
 20
108.372957615066
 42
0.0
  0
VERTEX
  8
0
 10
541.891739649961
 20
108.729452272814
 42
0.0
  0
VERTEX
  8
0
 10
542.630800198709
 20
109.296553377615
 42
0.0
  0
VERTEX
  8
0
 10
543.197901303512
 20
110.035613926361
 42
0.0
  0
VERTEX
  8
0
 10
543.554395961259
 20
110.896268164012
 42
0.0
  0
VERTEX
  8
0
 10
543.67598965016
 20
111.819863926564
 42
0.0
  0
VERTEX
  8
0
 10
543.554395961262
 20
112.743459689116
 42
0.0
  0
VERTEX
  8
0
 10
543.197901303512
 20
113.604113926761
 42
0.0
  0
VERTEX
  8
0
 10
542.630800198709
 20
114.343174475509
 42
0.0
  0
VERTEX
  8
0
 10
541.891739649961
 20
114.910275580317
 42
0.0
  0
VERTEX
  8
0
 10
541.031085412312
 20
115.266770238064
 42
0.0
  0
VERTEX
  8
0
 10
540.10748964976
 20
115.388363926964
 42
0.0
  0
VERTEX
  8
0
 10
539.183893887209
 20
115.266770238062
 42
0.0
  0
VERTEX
  8
0
 10
538.323239649561
 20
114.910275580315
 42
0.0
  0
VERTEX
  8
0
 10
537.584179100813
 20
114.343174475508
 42
0.0
  0
SEQEND
  0
POLYLINE
  8
0
 66
     1
 10
0.0
 20
0.0
 30
0.0
 70
     1
  0
VERTEX
  8
0
 10
517.617887283648
 20
30.7824016342024
 42
0.0
  0
VERTEX
  8
0
 10
518.015183840343
 20
30.2646346809757
 42
0.0
  0
VERTEX
  8
0
 10
518.532950793571
 20
29.8673381242819
 42
0.0
  0
VERTEX
  8
0
 10
519.135903181118
 20
29.6175870678931
 42
0.0
  0
VERTEX
  8
0
 10
519.782950794201
 20
29.5324016335717
 42
0.0
  0
VERTEX
  8
0
 10
520.429998407283
 20
29.6175870678924
 42
0.0
  0
VERTEX
  8
0
 10
521.03295079483
 20
29.8673381242811
 42
0.0
  0
VERTEX
  8
0
 10
521.550717748058
 20
30.2646346809772
 42
0.0
  0
VERTEX
  8
0
 10
521.948014304753
 20
30.7824016342039
 42
0.0
  0
VERTEX
  8
0
 10
522.197765361139
 20
31.3853540217491
 42
0.0
  0
VERTEX
  8
0
 10
522.28295079546
 20
32.0324016348317
 42
0.0
  0
VERTEX
  8
0
 10
522.197765361141
 20
32.6794492479142
 42
0.0
  0
VERTEX
  8
0
 10
521.948014304754
 20
33.2824016354638
 42
0.0
  0
VERTEX
  8
0
 10
521.550717748059
 20
33.8001685886913
 42
0.0
  0
VERTEX
  8
0
 10
521.032950794831
 20
34.1974651453858
 42
0.0
  0
VERTEX
  8
0
 10
520.429998407283
 20
34.4472162017723
 42
0.0
  0
VERTEX
  8
0
 10
519.782950794202
 20
34.5324016360915
 42
0.0
  0
VERTEX
  8
0
 10
519.135903181119
 20
34.4472162017723
 42
0.0
  0
VERTEX
  8
0
 10
518.532950793572
 20
34.1974651453865
 42
0.0
  0
VERTEX
  8
0
 10
518.015183840345
 20
33.8001685886898
 42
0.0
  0
VERTEX
  8
0
 10
517.61788728365
 20
33.2824016354623
 42
0.0
  0
VERTEX
  8
0
 10
517.368136227261
 20
32.679449247912
 42
0.0
  0
VERTEX
  8
0
 10
517.28295079294
 20
32.0324016348295
 42
0.0
  0
VERTEX
  8
0
 10
517.36813622726
 20
31.3853540217462
 42
0.0
  0
SEQEND
  0
POLYLINE
  8
0
 66
     1
 10
0.0
 20
0.0
 30
0.0
 70
     1
  0
VERTEX
  8
0
 10
507.617887283648
 20
30.769380177759
 42
0.0
  0
VERTEX
  8
0
 10
508.015183840343
 20
30.2516132245322
 42
0.0
  0
VERTEX
  8
0
 10
508.53295079357
 20
29.8543166678384
 42
0.0
  0
VERTEX
  8
0
 10
509.135903181118
 20
29.6045656114497
 42
0.0
  0
VERTEX
  8
0
 10
509.782950794201
 20
29.5193801771291
 42
0.0
  0
VERTEX
  8
0
 10
510.429998407283
 20
29.604565611449
 42
0.0
  0
VERTEX
  8
0
 10
511.03295079483
 20
29.8543166678377
 42
0.0
  0
VERTEX
  8
0
 10
511.550717748058
 20
30.2516132245333
 42
0.0
  0
VERTEX
  8
0
 10
511.948014304753
 20
30.7693801777597
 42
0.0
  0
VERTEX
  8
0
 10
512.19776536114
 20
31.3723325653049
 42
0.0
  0
VERTEX
  8
0
 10
512.28295079546
 20
32.0193801783875
 42
0.0
  0
VERTEX
  8
0
 10
512.197765361141
 20
32.66642779147
 42
0.0
  0
VERTEX
  8
0
 10
511.948014304755
 20
33.2693801790196
 42
0.0
  0
VERTEX
  8
0
 10
511.550717748059
 20
33.787147132247
 42
0.0
  0
VERTEX
  8
0
 10
511.032950794832
 20
34.1844436889423
 42
0.0
  0
VERTEX
  8
0
 10
510.429998407283
 20
34.4341947453289
 42
0.0
  0
VERTEX
  8
0
 10
509.782950794202
 20
34.5193801796489
 42
0.0
  0
VERTEX
  8
0
 10
509.135903181119
 20
34.4341947453289
 42
0.0
  0
VERTEX
  8
0
 10
508.532950793572
 20
34.184443688943
 42
0.0
  0
VERTEX
  8
0
 10
508.015183840345
 20
33.7871471322463
 42
0.0
  0
VERTEX
  8
0
 10
507.61788728365
 20
33.2693801790189
 42
0.0
  0
VERTEX
  8
0
 10
507.368136227262
 20
32.6664277914686
 42
0.0
  0
VERTEX
  8
0
 10
507.28295079294
 20
32.019380178386
 42
0.0
  0
VERTEX
  8
0
 10
507.36813622726
 20
31.3723325653028
 42
0.0
  0
SEQEND
  0
POLYLINE
  8
0
 66
     1
 10
0.0
 20
0.0
 30
0.0
 70
     1
  0
VERTEX
  8
0
 10
567.332539037272
 20
113.604113926764
 42
0.0
  0
VERTEX
  8
0
 10
566.976044379527
 20
112.743459689119
 42
0.0
  0
VERTEX
  8
0
 10
566.854450690622
 20
111.819863926566
 42
0.0
  0
VERTEX
  8
0
 10
566.976044379523
 20
110.896268164015
 42
0.0
  0
VERTEX
  8
0
 10
567.332539037272
 20
110.035613926364
 42
0.0
  0
VERTEX
  8
0
 10
567.899640142077
 20
109.296553377614
 42
0.0
  0
VERTEX
  8
0
 10
568.638700690824
 20
108.729452272813
 42
0.0
  0
VERTEX
  8
0
 10
569.499354928472
 20
108.372957615065
 42
0.0
  0
VERTEX
  8
0
 10
570.422950691024
 20
108.251363926166
 42
0.0
  0
VERTEX
  8
0
 10
571.346546453576
 20
108.372957615066
 42
0.0
  0
VERTEX
  8
0
 10
572.207200691224
 20
108.729452272813
 42
0.0
  0
VERTEX
  8
0
 10
572.946261239971
 20
109.296553377614
 42
0.0
  0
VERTEX
  8
0
 10
573.513362344774
 20
110.035613926361
 42
0.0
  0
VERTEX
  8
0
 10
573.869857002522
 20
110.896268164012
 42
0.0
  0
VERTEX
  8
0
 10
573.991450691423
 20
111.819863926564
 42
0.0
  0
VERTEX
  8
0
 10
573.869857002525
 20
112.743459689116
 42
0.0
  0
VERTEX
  8
0
 10
573.513362344775
 20
113.604113926761
 42
0.0
  0
VERTEX
  8
0
 10
572.946261239971
 20
114.343174475509
 42
0.0
  0
VERTEX
  8
0
 10
572.207200691223
 20
114.910275580317
 42
0.0
  0
VERTEX
  8
0
 10
571.346546453576
 20
115.266770238063
 42
0.0
  0
VERTEX
  8
0
 10
570.422950691023
 20
115.388363926965
 42
0.0
  0
VERTEX
  8
0
 10
569.499354928472
 20
115.266770238063
 42
0.0
  0
VERTEX
  8
0
 10
568.638700690824
 20
114.910275580316
 42
0.0
  0
VERTEX
  8
0
 10
567.899640142076
 20
114.343174475508
 42
0.0
  0
SEQEND
  0
POLYLINE
  8
0
 66
     1
 10
0.0
 20
0.0
 30
0.0
 70
     1
  0
VERTEX
  8
0
 10
568.257887180481
 20
30.769380177759
 42
0.0
  0
VERTEX
  8
0
 10
568.655183737176
 20
30.2516132245322
 42
0.0
  0
VERTEX
  8
0
 10
569.172950690403
 20
29.854316667838
 42
0.0
  0
VERTEX
  8
0
 10
569.775903077952
 20
29.6045656114497
 42
0.0
  0
VERTEX
  8
0
 10
570.422950691034
 20
29.519380177129
 42
0.0
  0
VERTEX
  8
0
 10
571.069998304117
 20
29.604565611449
 42
0.0
  0
VERTEX
  8
0
 10
571.672950691663
 20
29.8543166678377
 42
0.0
  0
VERTEX
  8
0
 10
572.190717644891
 20
30.2516132245337
 42
0.0
  0
VERTEX
  8
0
 10
572.588014201586
 20
30.7693801777597
 42
0.0
  0
VERTEX
  8
0
 10
572.837765257972
 20
31.3723325653056
 42
0.0
  0
VERTEX
  8
0
 10
572.922950692293
 20
32.0193801783882
 42
0.0
  0
VERTEX
  8
0
 10
572.837765257974
 20
32.6664277914708
 42
0.0
  0
VERTEX
  8
0
 10
572.588014201588
 20
33.2693801790196
 42
0.0
  0
VERTEX
  8
0
 10
572.190717644892
 20
33.7871471322478
 42
0.0
  0
VERTEX
  8
0
 10
571.672950691665
 20
34.1844436889423
 42
0.0
  0
VERTEX
  8
0
 10
571.069998304116
 20
34.4341947453289
 42
0.0
  0
VERTEX
  8
0
 10
570.422950691035
 20
34.5193801796488
 42
0.0
  0
VERTEX
  8
0
 10
569.775903077951
 20
34.4341947453289
 42
0.0
  0
VERTEX
  8
0
 10
569.172950690405
 20
34.1844436889427
 42
0.0
  0
VERTEX
  8
0
 10
568.655183737178
 20
33.7871471322463
 42
0.0
  0
VERTEX
  8
0
 10
568.257887180483
 20
33.2693801790189
 42
0.0
  0
VERTEX
  8
0
 10
568.008136124094
 20
32.6664277914686
 42
0.0
  0
VERTEX
  8
0
 10
567.922950689773
 20
32.019380178386
 42
0.0
  0
VERTEX
  8
0
 10
568.008136124093
 20
31.3723325653028
 42
0.0
  0
SEQEND
  0
POLYLINE
  8
0
 66
     1
 10
0.0
 20
0.0
 30
0.0
 70
     1
  0
VERTEX
  8
0
 10
527.617887283632
 20
60.8008553464611
 42
0.0
  0
VERTEX
  8
0
 10
528.015183840327
 20
60.2830883932343
 42
0.0
  0
VERTEX
  8
0
 10
528.532950793554
 20
59.8857918365412
 42
0.0
  0
VERTEX
  8
0
 10
529.135903181102
 20
59.6360407801518
 42
0.0
  0
VERTEX
  8
0
 10
529.782950794185
 20
59.5508553458307
 42
0.0
  0
VERTEX
  8
0
 10
530.429998407267
 20
59.6360407801518
 42
0.0
  0
VERTEX
  8
0
 10
531.032950794814
 20
59.8857918365398
 42
0.0
  0
VERTEX
  8
0
 10
531.550717748041
 20
60.2830883932357
 42
0.0
  0
VERTEX
  8
0
 10
531.948014304737
 20
60.8008553464632
 42
0.0
  0
VERTEX
  8
0
 10
532.197765361123
 20
61.4038077340085
 42
0.0
  0
VERTEX
  8
0
 10
532.282950795443
 20
62.050855347091
 42
0.0
  0
VERTEX
  8
0
 10
532.197765361124
 20
62.6979029601728
 42
0.0
  0
VERTEX
  8
0
 10
531.948014304738
 20
63.3008553477231
 42
0.0
  0
VERTEX
  8
0
 10
531.550717748042
 20
63.8186223009506
 42
0.0
  0
VERTEX
  8
0
 10
531.032950794815
 20
64.2159188576444
 42
0.0
  0
VERTEX
  8
0
 10
530.429998407266
 20
64.465669914031
 42
0.0
  0
VERTEX
  8
0
 10
529.782950794185
 20
64.5508553483505
 42
0.0
  0
VERTEX
  8
0
 10
529.135903181102
 20
64.465669914031
 42
0.0
  0
VERTEX
  8
0
 10
528.532950793555
 20
64.2159188576458
 42
0.0
  0
VERTEX
  8
0
 10
528.015183840328
 20
63.8186223009491
 42
0.0
  0
VERTEX
  8
0
 10
527.617887283633
 20
63.3008553477209
 42
0.0
  0
VERTEX
  8
0
 10
527.368136227245
 20
62.6979029601714
 42
0.0
  0
VERTEX
  8
0
 10
527.282950792923
 20
62.0508553470888
 42
0.0
  0
VERTEX
  8
0
 10
527.368136227243
 20
61.4038077340056
 42
0.0
  0
SEQEND
  0
POLYLINE
  8
0
 66
     1
 10
0.0
 20
0.0
 30
0.0
 70
     1
  0
VERTEX
  8
0
 10
517.617887283638
 20
110.569863925937
 42
0.0
  0
VERTEX
  8
0
 10
518.015183840333
 20
110.05209697271
 42
0.0
  0
VERTEX
  8
0
 10
518.53295079356
 20
109.654800416017
 42
0.0
  0
VERTEX
  8
0
 10
519.135903181108
 20
109.405049359627
 42
0.0
  0
VERTEX
  8
0
 10
519.782950794191
 20
109.319863925306
 42
0.0
  0
VERTEX
  8
0
 10
520.429998407273
 20
109.405049359627
 42
0.0
  0
VERTEX
  8
0
 10
521.03295079482
 20
109.654800416016
 42
0.0
  0
VERTEX
  8
0
 10
521.550717748047
 20
110.052096972711
 42
0.0
  0
VERTEX
  8
0
 10
521.948014304742
 20
110.569863925939
 42
0.0
  0
VERTEX
  8
0
 10
522.197765361129
 20
111.172816313484
 42
0.0
  0
VERTEX
  8
0
 10
522.282950795449
 20
111.819863926566
 42
0.0
  0
VERTEX
  8
0
 10
522.19776536113
 20
112.466911539648
 42
0.0
  0
VERTEX
  8
0
 10
521.948014304744
 20
113.069863927199
 42
0.0
  0
VERTEX
  8
0
 10
521.550717748048
 20
113.587630880426
 42
0.0
  0
VERTEX
  8
0
 10
521.032950794821
 20
113.984927437121
 42
0.0
  0
VERTEX
  8
0
 10
520.429998407272
 20
114.234678493506
 42
0.0
  0
VERTEX
  8
0
 10
519.782950794191
 20
114.319863927826
 42
0.0
  0
VERTEX
  8
0
 10
519.135903181107
 20
114.234678493506
 42
0.0
  0
VERTEX
  8
0
 10
518.532950793561
 20
113.984927437121
 42
0.0
  0
VERTEX
  8
0
 10
518.015183840334
 20
113.587630880425
 42
0.0
  0
VERTEX
  8
0
 10
517.617887283639
 20
113.069863927197
 42
0.0
  0
VERTEX
  8
0
 10
517.368136227251
 20
112.466911539647
 42
0.0
  0
VERTEX
  8
0
 10
517.282950792929
 20
111.819863926564
 42
0.0
  0
VERTEX
  8
0
 10
517.368136227249
 20
111.172816313481
 42
0.0
  0
SEQEND
  0
POLYLINE
  8
0
 66
     1
 10
0.0
 20
0.0
 30
0.0
 70
     1
  0
VERTEX
  8
0
 10
487.62782936534
 20
39.4515300523879
 42
0.0
  0
VERTEX
  8
0
 10
487.877580421727
 20
38.8485776648441
 42
0.0
  0
VERTEX
  8
0
 10
488.274876978425
 20
38.3308107116167
 42
0.0
  0
VERTEX
  8
0
 10
488.792643931649
 20
37.9335141549243
 42
0.0
  0
VERTEX
  8
0
 10
489.395596319198
 20
37.6837630985349
 42
0.0
  0
VERTEX
  8
0
 10
490.04264393228
 20
37.5985776642146
 42
0.0
  0
VERTEX
  8
0
 10
490.689691545362
 20
37.6837630985341
 42
0.0
  0
VERTEX
  8
0
 10
491.292643932909
 20
37.9335141549221
 42
0.0
  0
VERTEX
  8
0
 10
491.810410886139
 20
38.3308107116188
 42
0.0
  0
VERTEX
  8
0
 10
492.207707442831
 20
38.8485776648456
 42
0.0
  0
VERTEX
  8
0
 10
492.457458499219
 20
39.451530052393
 42
0.0
  0
VERTEX
  8
0
 10
492.542643933539
 20
40.0985776654726
 42
0.0
  0
VERTEX
  8
0
 10
492.457458499218
 20
40.7456252785581
 42
0.0
  0
VERTEX
  8
0
 10
492.207707442831
 20
41.3485776661055
 42
0.0
  0
VERTEX
  8
0
 10
491.810410886136
 20
41.8663446193337
 42
0.0
  0
VERTEX
  8
0
 10
491.29264393291
 20
42.2636411760268
 42
0.0
  0
VERTEX
  8
0
 10
490.689691545363
 20
42.5133922324133
 42
0.0
  0
VERTEX
  8
0
 10
490.04264393228
 20
42.5985776667336
 42
0.0
  0
VERTEX
  8
0
 10
489.395596319198
 20
42.5133922324141
 42
0.0
  0
VERTEX
  8
0
 10
488.792643931651
 20
42.2636411760282
 42
0.0
  0
VERTEX
  8
0
 10
488.274876978421
 20
41.8663446193315
 42
0.0
  0
VERTEX
  8
0
 10
487.877580421727
 20
41.348577666104
 42
0.0
  0
VERTEX
  8
0
 10
487.627829365339
 20
40.745625278553
 42
0.0
  0
VERTEX
  8
0
 10
487.542643931019
 20
40.0985776654705
 42
0.0
  0
SEQEND
  0
POLYLINE
  8
0
 66
     1
 10
0.0
 20
0.0
 30
0.0
 70
     1
  0
VERTEX
  8
0
 10
680.035659217488
 20
173.078584042094
 42
0.0
  0
VERTEX
  8
0
 10
679.604125874412
 20
172.516198840168
 42
0.0
  0
VERTEX
  8
0
 10
679.332852674368
 20
171.861287401519
 42
0.0
  0
VERTEX
  8
0
 10
679.240326437645
 20
171.1584808584
 42
0.0
  0
VERTEX
  8
0
 10
679.332852674367
 20
170.45567431528
 42
0.0
  0
VERTEX
  8
0
 10
679.604125874409
 20
169.800762876631
 42
0.0
  0
VERTEX
  8
0
 10
680.035659217487
 20
169.238377674705
 42
0.0
  0
VERTEX
  8
0
 10
680.598044419414
 20
168.806844331627
 42
0.0
  0
VERTEX
  8
0
 10
681.252955858063
 20
168.535571131585
 42
0.0
  0
VERTEX
  8
0
 10
681.955762401182
 20
168.443044894862
 42
0.0
  0
VERTEX
  8
0
 10
682.658568944302
 20
168.535571131585
 42
0.0
  0
VERTEX
  8
0
 10
683.313480382951
 20
168.806844331627
 42
0.0
  0
VERTEX
  8
0
 10
683.875865584877
 20
169.238377674705
 42
0.0
  0
VERTEX
  8
0
 10
684.307398927955
 20
169.800762876631
 42
0.0
  0
VERTEX
  8
0
 10
684.578672127997
 20
170.45567431528
 42
0.0
  0
VERTEX
  8
0
 10
684.671198364719
 20
171.1584808584
 42
0.0
  0
VERTEX
  8
0
 10
684.578672127997
 20
171.86128740152
 42
0.0
  0
VERTEX
  8
0
 10
684.307398927958
 20
172.516198840169
 42
0.0
  0
VERTEX
  8
0
 10
683.875865584878
 20
173.078584042095
 42
0.0
  0
VERTEX
  8
0
 10
683.313480382951
 20
173.510117385173
 42
0.0
  0
VERTEX
  8
0
 10
682.658568944302
 20
173.781390585214
 42
0.0
  0
VERTEX
  8
0
 10
681.955762401183
 20
173.873916821937
 42
0.0
  0
VERTEX
  8
0
 10
681.252955858063
 20
173.781390585214
 42
0.0
  0
VERTEX
  8
0
 10
680.598044419414
 20
173.510117385173
 42
0.0
  0
SEQEND
  0
POLYLINE
  8
0
 66
     1
 10
0.0
 20
0.0
 30
0.0
 70
     1
  0
VERTEX
  8
0
 10
699.843463740763
 20
138.690473670813
 42
0.0
  0
VERTEX
  8
0
 10
700.274997083841
 20
139.252858872739
 42
0.0
  0
VERTEX
  8
0
 10
700.546270283882
 20
139.907770311388
 42
0.0
  0
VERTEX
  8
0
 10
700.638796520605
 20
140.610576854507
 42
0.0
  0
VERTEX
  8
0
 10
700.546270283882
 20
141.313383397626
 42
0.0
  0
VERTEX
  8
0
 10
700.274997083841
 20
141.968294836276
 42
0.0
  0
VERTEX
  8
0
 10
699.843463740761
 20
142.530680038202
 42
0.0
  0
VERTEX
  8
0
 10
699.281078538836
 20
142.96221338128
 42
0.0
  0
VERTEX
  8
0
 10
698.626167100186
 20
143.233486581322
 42
0.0
  0
VERTEX
  8
0
 10
697.923360557068
 20
143.326012818045
 42
0.0
  0
VERTEX
  8
0
 10
697.220554013948
 20
143.233486581322
 42
0.0
  0
VERTEX
  8
0
 10
696.565642575299
 20
142.96221338128
 42
0.0
  0
VERTEX
  8
0
 10
696.003257373373
 20
142.530680038202
 42
0.0
  0
VERTEX
  8
0
 10
695.571724030295
 20
141.968294836275
 42
0.0
  0
VERTEX
  8
0
 10
695.300450830253
 20
141.313383397627
 42
0.0
  0
VERTEX
  8
0
 10
695.207924593531
 20
140.610576854507
 42
0.0
  0
VERTEX
  8
0
 10
695.300450830253
 20
139.907770311387
 42
0.0
  0
VERTEX
  8
0
 10
695.571724030295
 20
139.252858872738
 42
0.0
  0
VERTEX
  8
0
 10
696.003257373373
 20
138.690473670812
 42
0.0
  0
VERTEX
  8
0
 10
696.565642575301
 20
138.258940327734
 42
0.0
  0
VERTEX
  8
0
 10
697.22055401395
 20
137.987667127692
 42
0.0
  0
VERTEX
  8
0
 10
697.92336055707
 20
137.89514089097
 42
0.0
  0
VERTEX
  8
0
 10
698.62616710019
 20
137.987667127692
 42
0.0
  0
VERTEX
  8
0
 10
699.281078538839
 20
138.258940327734
 42
0.0
  0
SEQEND
  0
POLYLINE
  8
0
 66
     1
 10
0.0
 20
0.0
 30
0.0
 70
     1
  0
VERTEX
  8
0
 10
608.965755352896
 20
12.109755023204
 42
0.0
  0
VERTEX
  8
0
 10
609.704815901642
 20
12.676856128005
 42
0.0
  0
VERTEX
  8
0
 10
610.27191700645
 20
13.415916676752
 42
0.0
  0
VERTEX
  8
0
 10
610.628411664198
 20
14.276570914402
 42
0.0
  0
VERTEX
  8
0
 10
610.7500053531
 20
15.200166676955
 42
0.0
  0
VERTEX
  8
0
 10
610.628411664198
 20
16.123762439506
 42
0.0
  0
VERTEX
  8
0
 10
610.27191700645
 20
16.984416677153
 42
0.0
  0
VERTEX
  8
0
 10
609.704815901641
 20
17.723477225899
 42
0.0
  0
VERTEX
  8
0
 10
608.9657553529
 20
18.290578330707
 42
0.0
  0
VERTEX
  8
0
 10
608.105101115252
 20
18.647072988455
 42
0.0
  0
VERTEX
  8
0
 10
607.1815053527
 20
18.768666677356
 42
0.0
  0
VERTEX
  8
0
 10
606.257909590148
 20
18.647072988454
 42
0.0
  0
VERTEX
  8
0
 10
605.397255352499
 20
18.290578330705
 42
0.0
  0
VERTEX
  8
0
 10
604.658194803747
 20
17.723477225904
 42
0.0
  0
VERTEX
  8
0
 10
604.091093698947
 20
16.984416677157
 42
0.0
  0
VERTEX
  8
0
 10
603.7345990412
 20
16.123762439507
 42
0.0
  0
VERTEX
  8
0
 10
603.6130053523
 20
15.200166676956
 42
0.0
  0
VERTEX
  8
0
 10
603.7345990412
 20
14.276570914403
 42
0.0
  0
VERTEX
  8
0
 10
604.091093698948
 20
13.415916676756
 42
0.0
  0
VERTEX
  8
0
 10
604.658194803747
 20
12.676856128008
 42
0.0
  0
VERTEX
  8
0
 10
605.397255352496
 20
12.109755023202
 42
0.0
  0
VERTEX
  8
0
 10
606.257909590146
 20
11.753260365455
 42
0.0
  0
VERTEX
  8
0
 10
607.181505352698
 20
11.631666676556
 42
0.0
  0
VERTEX
  8
0
 10
608.10510111525
 20
11.753260365456
 42
0.0
  0
SEQEND
  0
POLYLINE
  8
0
 66
     1
 10
0.0
 20
0.0
 30
0.0
 70
     1
  0
VERTEX
  8
0
 10
632.229043096251
 20
138.690473670807
 42
0.0
  0
VERTEX
  8
0
 10
631.666657894327
 20
138.258940327729
 42
0.0
  0
VERTEX
  8
0
 10
631.011746455678
 20
137.987667127688
 42
0.0
  0
VERTEX
  8
0
 10
630.308939912559
 20
137.895140890965
 42
0.0
  0
VERTEX
  8
0
 10
629.606133369439
 20
137.987667127688
 42
0.0
  0
VERTEX
  8
0
 10
628.95122193079
 20
138.258940327729
 42
0.0
  0
VERTEX
  8
0
 10
628.388836728862
 20
138.690473670808
 42
0.0
  0
VERTEX
  8
0
 10
627.957303385784
 20
139.252858872734
 42
0.0
  0
VERTEX
  8
0
 10
627.686030185742
 20
139.907770311383
 42
0.0
  0
VERTEX
  8
0
 10
627.59350394902
 20
140.610576854502
 42
0.0
  0
VERTEX
  8
0
 10
627.686030185742
 20
141.313383397622
 42
0.0
  0
VERTEX
  8
0
 10
627.957303385784
 20
141.968294836271
 42
0.0
  0
VERTEX
  8
0
 10
628.388836728862
 20
142.530680038197
 42
0.0
  0
VERTEX
  8
0
 10
628.951221930788
 20
142.962213381275
 42
0.0
  0
VERTEX
  8
0
 10
629.606133369437
 20
143.233486581317
 42
0.0
  0
VERTEX
  8
0
 10
630.308939912557
 20
143.326012818039
 42
0.0
  0
VERTEX
  8
0
 10
631.011746455676
 20
143.233486581317
 42
0.0
  0
VERTEX
  8
0
 10
631.666657894325
 20
142.962213381275
 42
0.0
  0
VERTEX
  8
0
 10
632.229043096251
 20
142.530680038197
 42
0.0
  0
VERTEX
  8
0
 10
632.66057643933
 20
141.968294836271
 42
0.0
  0
VERTEX
  8
0
 10
632.931849639371
 20
141.313383397622
 42
0.0
  0
VERTEX
  8
0
 10
633.024375876094
 20
140.610576854502
 42
0.0
  0
VERTEX
  8
0
 10
632.931849639371
 20
139.907770311383
 42
0.0
  0
VERTEX
  8
0
 10
632.660576439329
 20
139.252858872734
 42
0.0
  0
SEQEND
  0
POLYLINE
  8
0
 66
     1
 10
0.0
 20
0.0
 30
0.0
 70
     1
  0
VERTEX
  8
0
 10
639.214211558246
 20
162.620812639318
 42
0.0
  0
VERTEX
  8
0
 10
638.688179007926
 20
162.217182351673
 42
0.0
  0
VERTEX
  8
0
 10
638.28452332035
 20
161.691124401423
 42
0.0
  0
VERTEX
  8
0
 10
638.030778019643
 20
161.07852888966
 42
0.0
  0
VERTEX
  8
0
 10
637.944215058196
 20
160.421127901375
 42
0.0
  0
VERTEX
  8
0
 10
637.944215058197
 20
151.421151680686
 42
0.0
  0
VERTEX
  8
0
 10
638.030778019639
 20
150.763750692401
 42
0.0
  0
VERTEX
  8
0
 10
638.28452332035
 20
150.151155180637
 42
0.0
  0
VERTEX
  8
0
 10
638.688179007927
 20
149.625097230388
 42
0.0
  0
VERTEX
  8
0
 10
639.214211558247
 20
149.221441542812
 42
0.0
  0
VERTEX
  8
0
 10
639.826807070008
 20
148.967696242102
 42
0.0
  0
VERTEX
  8
0
 10
640.484208058293
 20
148.881158680589
 42
0.0
  0
VERTEX
  8
0
 10
641.141609046578
 20
148.967696242102
 42
0.0
  0
VERTEX
  8
0
 10
641.754204558343
 20
149.221441542812
 42
0.0
  0
VERTEX
  8
0
 10
642.280262508593
 20
149.625097230387
 42
0.0
  0
VERTEX
  8
0
 10
642.683918196167
 20
150.151155180637
 42
0.0
  0
VERTEX
  8
0
 10
642.937663496875
 20
150.7637506924
 42
0.0
  0
VERTEX
  8
0
 10
643.024201058389
 20
151.421151680685
 42
0.0
  0
VERTEX
  8
0
 10
643.024201058389
 20
160.421127901375
 42
0.0
  0
VERTEX
  8
0
 10
642.937663496879
 20
161.07852888966
 42
0.0
  0
VERTEX
  8
0
 10
642.683918196167
 20
161.691124401423
 42
0.0
  0
VERTEX
  8
0
 10
642.280262508591
 20
162.217182351673
 42
0.0
  0
VERTEX
  8
0
 10
641.754204558342
 20
162.620812639319
 42
0.0
  0
VERTEX
  8
0
 10
641.141609046579
 20
162.874583339958
 42
0.0
  0
VERTEX
  8
0
 10
640.484208058294
 20
162.961120901471
 42
0.0
  0
VERTEX
  8
0
 10
639.826807070009
 20
162.874583339958
 42
0.0
  0
SEQEND
  0
POLYLINE
  8
0
 66
     1
 10
0.0
 20
0.0
 30
0.0
 70
     1
  0
VERTEX
  8
0
 10
639.214211558247
 20
115.376942837527
 42
0.0
  0
VERTEX
  8
0
 10
638.688179007927
 20
114.973312549882
 42
0.0
  0
VERTEX
  8
0
 10
638.28452332035
 20
114.447254599632
 42
0.0
  0
VERTEX
  8
0
 10
638.03077801964
 20
113.834659087869
 42
0.0
  0
VERTEX
  8
0
 10
637.944215058197
 20
113.177258099584
 42
0.0
  0
VERTEX
  8
0
 10
637.944215058197
 20
104.177281878894
 42
0.0
  0
VERTEX
  8
0
 10
638.030778019641
 20
103.519880890609
 42
0.0
  0
VERTEX
  8
0
 10
638.284523320349
 20
102.907285378846
 42
0.0
  0
VERTEX
  8
0
 10
638.688179007925
 20
102.381227428596
 42
0.0
  0
VERTEX
  8
0
 10
639.214211558245
 20
101.977571741021
 42
0.0
  0
VERTEX
  8
0
 10
639.826807070008
 20
101.723826440311
 42
0.0
  0
VERTEX
  8
0
 10
640.484208058293
 20
101.637288878798
 42
0.0
  0
VERTEX
  8
0
 10
641.141609046578
 20
101.723826440311
 42
0.0
  0
VERTEX
  8
0
 10
641.754204558341
 20
101.977571741021
 42
0.0
  0
VERTEX
  8
0
 10
642.280262508591
 20
102.381227428596
 42
0.0
  0
VERTEX
  8
0
 10
642.683918196166
 20
102.907285378846
 42
0.0
  0
VERTEX
  8
0
 10
642.937663496877
 20
103.519880890609
 42
0.0
  0
VERTEX
  8
0
 10
643.02420105839
 20
104.177281878894
 42
0.0
  0
VERTEX
  8
0
 10
643.024201058389
 20
113.177258099584
 42
0.0
  0
VERTEX
  8
0
 10
642.937663496876
 20
113.834659087869
 42
0.0
  0
VERTEX
  8
0
 10
642.683918196167
 20
114.447254599632
 42
0.0
  0
VERTEX
  8
0
 10
642.280262508593
 20
114.973312549882
 42
0.0
  0
VERTEX
  8
0
 10
641.754204558343
 20
115.376942837527
 42
0.0
  0
VERTEX
  8
0
 10
641.141609046578
 20
115.630713538167
 42
0.0
  0
VERTEX
  8
0
 10
640.484208058293
 20
115.71725109968
 42
0.0
  0
VERTEX
  8
0
 10
639.826807070008
 20
115.630713538167
 42
0.0
  0
SEQEND
  0
POLYLINE
  8
0
 66
     1
 10
0.0
 20
0.0
 30
0.0
 70
     1
  0
VERTEX
  8
0
 10
719.72927308719
 20
97.2016004961933
 42
0.0
  0
VERTEX
  8
0
 10
719.211506133965
 20
96.8043039394983
 42
0.0
  0
VERTEX
  8
0
 10
718.814209577272
 20
96.2865369862713
 42
0.0
  0
VERTEX
  8
0
 10
718.564458520883
 20
95.6835845987233
 42
0.0
  0
VERTEX
  8
0
 10
718.479273086561
 20
95.0365369856403
 42
0.0
  0
VERTEX
  8
0
 10
718.564458520882
 20
94.3894893725583
 42
0.0
  0
VERTEX
  8
0
 10
718.814209577269
 20
93.7865369850113
 42
0.0
  0
VERTEX
  8
0
 10
719.211506133966
 20
93.2687700317843
 42
0.0
  0
VERTEX
  8
0
 10
719.729273087194
 20
92.8714734750893
 42
0.0
  0
VERTEX
  8
0
 10
720.332225474739
 20
92.6217224187023
 42
0.0
  0
VERTEX
  8
0
 10
720.979273087823
 20
92.5365369843823
 42
0.0
  0
VERTEX
  8
0
 10
721.626320700903
 20
92.6217224187013
 42
0.0
  0
VERTEX
  8
0
 10
722.229273088454
 20
92.8714734750873
 42
0.0
  0
VERTEX
  8
0
 10
722.747040041681
 20
93.2687700317833
 42
0.0
  0
VERTEX
  8
0
 10
723.144336598374
 20
93.7865369850103
 42
0.0
  0
VERTEX
  8
0
 10
723.394087654761
 20
94.3894893725583
 42
0.0
  0
VERTEX
  8
0
 10
723.479273089082
 20
95.0365369856403
 42
0.0
  0
VERTEX
  8
0
 10
723.394087654761
 20
95.6835845987233
 42
0.0
  0
VERTEX
  8
0
 10
723.144336598376
 20
96.2865369862703
 42
0.0
  0
VERTEX
  8
0
 10
722.74704004168
 20
96.8043039394973
 42
0.0
  0
VERTEX
  8
0
 10
722.229273088451
 20
97.2016004961913
 42
0.0
  0
VERTEX
  8
0
 10
721.626320700902
 20
97.4513515525803
 42
0.0
  0
VERTEX
  8
0
 10
720.979273087819
 20
97.5365369869013
 42
0.0
  0
VERTEX
  8
0
 10
720.332225474735
 20
97.4513515525813
 42
0.0
  0
SEQEND
  0
POLYLINE
  8
0
 66
     1
 10
0.0
 20
0.0
 30
0.0
 70
     1
  0
VERTEX
  8
0
 10
686.458081360038
 20
115.376942837527
 42
0.0
  0
VERTEX
  8
0
 10
685.932048809715
 20
114.973312549882
 42
0.0
  0
VERTEX
  8
0
 10
685.52839312214
 20
114.447254599632
 42
0.0
  0
VERTEX
  8
0
 10
685.274647821432
 20
113.834659087869
 42
0.0
  0
VERTEX
  8
0
 10
685.188084859988
 20
113.177258099584
 42
0.0
  0
VERTEX
  8
0
 10
685.188084859988
 20
104.177281878894
 42
0.0
  0
VERTEX
  8
0
 10
685.27464782143
 20
103.519880890609
 42
0.0
  0
VERTEX
  8
0
 10
685.528393122141
 20
102.907285378846
 42
0.0
  0
VERTEX
  8
0
 10
685.932048809716
 20
102.381227428596
 42
0.0
  0
VERTEX
  8
0
 10
686.458081360037
 20
101.977571741021
 42
0.0
  0
VERTEX
  8
0
 10
687.070676871799
 20
101.723826440311
 42
0.0
  0
VERTEX
  8
0
 10
687.728077860085
 20
101.637288878798
 42
0.0
  0
VERTEX
  8
0
 10
688.385478848369
 20
101.723826440311
 42
0.0
  0
VERTEX
  8
0
 10
688.998074360133
 20
101.977571741021
 42
0.0
  0
VERTEX
  8
0
 10
689.524132310382
 20
102.381227428596
 42
0.0
  0
VERTEX
  8
0
 10
689.927787997958
 20
102.907285378846
 42
0.0
  0
VERTEX
  8
0
 10
690.181533298667
 20
103.519880890609
 42
0.0
  0
VERTEX
  8
0
 10
690.268070860181
 20
104.177281878894
 42
0.0
  0
VERTEX
  8
0
 10
690.268070860181
 20
113.177258099584
 42
0.0
  0
VERTEX
  8
0
 10
690.181533298667
 20
113.834659087868
 42
0.0
  0
VERTEX
  8
0
 10
689.927787997957
 20
114.447254599632
 42
0.0
  0
VERTEX
  8
0
 10
689.524132310382
 20
114.973312549882
 42
0.0
  0
VERTEX
  8
0
 10
688.998074360135
 20
115.376942837527
 42
0.0
  0
VERTEX
  8
0
 10
688.385478848369
 20
115.630713538167
 42
0.0
  0
VERTEX
  8
0
 10
687.728077860084
 20
115.71725109968
 42
0.0
  0
VERTEX
  8
0
 10
687.070676871799
 20
115.630713538167
 42
0.0
  0
SEQEND
  0
POLYLINE
  8
0
 66
     1
 10
0.0
 20
0.0
 30
0.0
 70
     1
  0
VERTEX
  8
0
 10
658.943893004603
 20
104.87473294899
 42
0.0
  0
VERTEX
  8
0
 10
664.282035810359
 20
104.171953072691
 42
0.0
  0
VERTEX
  8
0
 10
669.620178616123
 20
104.874732948993
 42
0.0
  0
VERTEX
  8
0
 10
674.594535811367
 20
106.935179290726
 42
0.0
  0
VERTEX
  8
0
 10
678.866113173756
 20
110.212876084749
 42
0.0
  0
VERTEX
  8
0
 10
682.143809765155
 20
114.484453711201
 42
0.0
  0
VERTEX
  8
0
 10
684.204255979516
 20
119.458811213952
 42
0.0
  0
VERTEX
  8
0
 10
684.90703581237
 20
124.796954349708
 42
0.0
  0
VERTEX
  8
0
 10
684.907035322644
 20
141.296955861455
 42
0.0
  0
VERTEX
  8
0
 10
684.204255489786
 20
146.63509899721
 42
0.0
  0
VERTEX
  8
0
 10
682.143809275422
 20
151.609456499961
 42
0.0
  0
VERTEX
  8
0
 10
678.866112684025
 20
155.881034126411
 42
0.0
  0
VERTEX
  8
0
 10
674.594535321632
 20
159.158730920433
 42
0.0
  0
VERTEX
  8
0
 10
669.620178126389
 20
161.219177262163
 42
0.0
  0
VERTEX
  8
0
 10
664.282035320627
 20
161.921957138464
 42
0.0
  0
VERTEX
  8
0
 10
658.943892514867
 20
161.219177262162
 42
0.0
  0
VERTEX
  8
0
 10
653.969535319619
 20
159.158730920429
 42
0.0
  0
VERTEX
  8
0
 10
649.697957957234
 20
155.881034126405
 42
0.0
  0
VERTEX
  8
0
 10
646.420261365828
 20
151.609456499954
 42
0.0
  0
VERTEX
  8
0
 10
644.359815151472
 20
146.635098997202
 42
0.0
  0
VERTEX
  8
0
 10
643.65703531862
 20
141.296955861448
 42
0.0
  0
VERTEX
  8
0
 10
643.657035808346
 20
124.7969543497
 42
0.0
  0
VERTEX
  8
0
 10
644.359815641202
 20
119.458811213945
 42
0.0
  0
VERTEX
  8
0
 10
646.420261855561
 20
114.484453711193
 42
0.0
  0
VERTEX
  8
0
 10
649.697958446964
 20
110.212876084744
 42
0.0
  0
VERTEX
  8
0
 10
653.969535809355
 20
106.935179290722
 42
0.0
  0
SEQEND
  0
POLYLINE
  8
0
 66
     1
 10
0.0
 20
0.0
 30
0.0
 70
     1
  0
VERTEX
  8
0
 10
722.772022667155
 20
18.326948639753
 42
0.0
  0
VERTEX
  8
0
 10
721.911368429509
 20
18.683443297498
 42
0.0
  0
VERTEX
  8
0
 10
720.987772666957
 20
18.805036986402
 42
0.0
  0
VERTEX
  8
0
 10
720.064176904405
 20
18.683443297502
 42
0.0
  0
VERTEX
  8
0
 10
719.203522666754
 20
18.326948639753
 42
0.0
  0
VERTEX
  8
0
 10
718.464462118004
 20
17.759847534949
 42
0.0
  0
VERTEX
  8
0
 10
717.897361013204
 20
17.020786986202
 42
0.0
  0
VERTEX
  8
0
 10
717.540866355455
 20
16.160132748553
 42
0.0
  0
VERTEX
  8
0
 10
717.419272666556
 20
15.236536986001
 42
0.0
  0
VERTEX
  8
0
 10
717.540866355457
 20
14.312941223449
 42
0.0
  0
VERTEX
  8
0
 10
717.897361013205
 20
13.452286985801
 42
0.0
  0
VERTEX
  8
0
 10
718.464462118006
 20
12.713226437054
 42
0.0
  0
VERTEX
  8
0
 10
719.203522666752
 20
12.14612533225
 42
0.0
  0
VERTEX
  8
0
 10
720.064176904403
 20
11.789630674503
 42
0.0
  0
VERTEX
  8
0
 10
720.987772666955
 20
11.668036985602
 42
0.0
  0
VERTEX
  8
0
 10
721.911368429507
 20
11.789630674499
 42
0.0
  0
VERTEX
  8
0
 10
722.772022667151
 20
12.14612533225
 42
0.0
  0
VERTEX
  8
0
 10
723.5110832159
 20
12.713226437053
 42
0.0
  0
VERTEX
  8
0
 10
724.078184320708
 20
13.452286985801
 42
0.0
  0
VERTEX
  8
0
 10
724.434678978455
 20
14.31294122345
 42
0.0
  0
VERTEX
  8
0
 10
724.556272667355
 20
15.236536986002
 42
0.0
  0
VERTEX
  8
0
 10
724.434678978454
 20
16.160132748553
 42
0.0
  0
VERTEX
  8
0
 10
724.078184320705
 20
17.020786986201
 42
0.0
  0
VERTEX
  8
0
 10
723.511083215898
 20
17.759847534949
 42
0.0
  0
SEQEND
  0
POLYLINE
  8
0
 66
     1
 10
0.0
 20
0.0
 30
0.0
 70
     1
  0
VERTEX
  8
0
 10
606.565975472573
 20
97.4513515525843
 42
0.0
  0
VERTEX
  8
0
 10
605.963023085028
 20
97.2016004961973
 42
0.0
  0
VERTEX
  8
0
 10
605.445256131802
 20
96.8043039394993
 42
0.0
  0
VERTEX
  8
0
 10
605.047959575109
 20
96.2865369862753
 42
0.0
  0
VERTEX
  8
0
 10
604.798208518719
 20
95.6835845987263
 42
0.0
  0
VERTEX
  8
0
 10
604.713023084399
 20
95.0365369856433
 42
0.0
  0
VERTEX
  8
0
 10
604.798208518719
 20
94.3894893725613
 42
0.0
  0
VERTEX
  8
0
 10
605.047959575108
 20
93.7865369850153
 42
0.0
  0
VERTEX
  8
0
 10
605.445256131804
 20
93.2687700317853
 42
0.0
  0
VERTEX
  8
0
 10
605.963023085031
 20
92.8714734750923
 42
0.0
  0
VERTEX
  8
0
 10
606.565975472578
 20
92.6217224187043
 42
0.0
  0
VERTEX
  8
0
 10
607.213023085659
 20
92.5365369843853
 42
0.0
  0
VERTEX
  8
0
 10
607.860070698743
 20
92.6217224187053
 42
0.0
  0
VERTEX
  8
0
 10
608.463023086291
 20
92.8714734750923
 42
0.0
  0
VERTEX
  8
0
 10
608.980790039518
 20
93.2687700317883
 42
0.0
  0
VERTEX
  8
0
 10
609.378086596212
 20
93.7865369850133
 42
0.0
  0
VERTEX
  8
0
 10
609.627837652599
 20
94.3894893725613
 42
0.0
  0
VERTEX
  8
0
 10
609.713023086919
 20
95.0365369856443
 42
0.0
  0
VERTEX
  8
0
 10
609.627837652599
 20
95.6835845987263
 42
0.0
  0
VERTEX
  8
0
 10
609.378086596214
 20
96.2865369862733
 42
0.0
  0
VERTEX
  8
0
 10
608.980790039516
 20
96.8043039395023
 42
0.0
  0
VERTEX
  8
0
 10
608.463023086288
 20
97.2016004961973
 42
0.0
  0
VERTEX
  8
0
 10
607.860070698738
 20
97.4513515525853
 42
0.0
  0
VERTEX
  8
0
 10
607.213023085655
 20
97.5365369869053
 42
0.0
  0
SEQEND
  0
POLYLINE
  8
0
 66
     1
 10
0.0
 20
0.0
 30
0.0
 70
     1
  0
VERTEX
  8
0
 10
699.820595384694
 20
70.587981766171
 42
0.0
  0
VERTEX
  8
0
 10
699.405443618918
 20
72.67509063348
 42
0.0
  0
VERTEX
  8
0
 10
698.721421160852
 20
74.690155815922
 42
0.0
  0
VERTEX
  8
0
 10
697.780231824396
 20
76.598698989545
 42
0.0
  0
VERTEX
  8
0
 10
696.597979620048
 20
78.368064451497
 42
0.0
  0
VERTEX
  8
0
 10
695.194893210804
 20
79.967977868163
 42
0.0
  0
VERTEX
  8
0
 10
693.594979794138
 20
81.371064277406
 42
0.0
  0
VERTEX
  8
0
 10
691.825614332187
 20
82.553316481755
 42
0.0
  0
VERTEX
  8
0
 10
689.917071158565
 20
83.494505818209
 42
0.0
  0
VERTEX
  8
0
 10
687.902005976123
 20
84.178528276277
 42
0.0
  0
VERTEX
  8
0
 10
685.814897108812
 20
84.593680042052
 42
0.0
  0
VERTEX
  8
0
 10
683.899333044132
 20
84.719232744096
 42
0.0
  0
VERTEX
  8
0
 10
644.292963129345
 20
84.719232744095
 42
0.0
  0
VERTEX
  8
0
 10
642.377399064662
 20
84.593680042051
 42
0.0
  0
VERTEX
  8
0
 10
640.290290197353
 20
84.178528276276
 42
0.0
  0
VERTEX
  8
0
 10
638.27522501491
 20
83.494505818209
 42
0.0
  0
VERTEX
  8
0
 10
636.366681841288
 20
82.553316481753
 42
0.0
  0
VERTEX
  8
0
 10
634.597316379336
 20
81.371064277405
 42
0.0
  0
VERTEX
  8
0
 10
632.997402962671
 20
79.967977868162
 42
0.0
  0
VERTEX
  8
0
 10
631.594316553427
 20
78.368064451495
 42
0.0
  0
VERTEX
  8
0
 10
630.412064349079
 20
76.598698989543
 42
0.0
  0
VERTEX
  8
0
 10
629.470875012625
 20
74.690155815924
 42
0.0
  0
VERTEX
  8
0
 10
628.786852554556
 20
72.675090633481
 42
0.0
  0
VERTEX
  8
0
 10
628.37170078878
 20
70.587981766169
 42
0.0
  0
VERTEX
  8
0
 10
628.246148086737
 20
68.672417701489
 42
0.0
  0
VERTEX
  8
0
 10
628.246148086738
 20
43.066047786702
 42
0.0
  0
VERTEX
  8
0
 10
628.371700788781
 20
41.150483722021
 42
0.0
  0
VERTEX
  8
0
 10
628.786852554557
 20
39.063374854709
 42
0.0
  0
VERTEX
  8
0
 10
629.470875012625
 20
37.048309672266
 42
0.0
  0
VERTEX
  8
0
 10
630.412064349081
 20
35.139766498645
 42
0.0
  0
VERTEX
  8
0
 10
631.594316553428
 20
33.370401036694
 42
0.0
  0
VERTEX
  8
0
 10
632.997402962671
 20
31.770487620027
 42
0.0
  0
VERTEX
  8
0
 10
634.597316379337
 20
30.367401210785
 42
0.0
  0
VERTEX
  8
0
 10
636.366681841289
 20
29.185149006436
 42
0.0
  0
VERTEX
  8
0
 10
638.27522501491
 20
28.243959669982
 42
0.0
  0
VERTEX
  8
0
 10
640.290290197353
 20
27.559937211914
 42
0.0
  0
VERTEX
  8
0
 10
642.377399064664
 20
27.144785446138
 42
0.0
  0
VERTEX
  8
0
 10
644.292963129344
 20
27.019232744095
 42
0.0
  0
VERTEX
  8
0
 10
683.899333044132
 20
27.019232744096
 42
0.0
  0
VERTEX
  8
0
 10
685.814897108813
 20
27.144785446139
 42
0.0
  0
VERTEX
  8
0
 10
687.902005976124
 20
27.559937211915
 42
0.0
  0
VERTEX
  8
0
 10
689.917071158566
 20
28.243959669983
 42
0.0
  0
VERTEX
  8
0
 10
691.825614332187
 20
29.185149006437
 42
0.0
  0
VERTEX
  8
0
 10
693.594979794138
 20
30.367401210785
 42
0.0
  0
VERTEX
  8
0
 10
695.194893210806
 20
31.770487620028
 42
0.0
  0
VERTEX
  8
0
 10
696.597979620048
 20
33.370401036695
 42
0.0
  0
VERTEX
  8
0
 10
697.780231824399
 20
35.139766498647
 42
0.0
  0
VERTEX
  8
0
 10
698.721421160852
 20
37.048309672268
 42
0.0
  0
VERTEX
  8
0
 10
699.405443618919
 20
39.063374854711
 42
0.0
  0
VERTEX
  8
0
 10
699.820595384694
 20
41.15048372202
 42
0.0
  0
VERTEX
  8
0
 10
699.946148086739
 20
43.0660477867
 42
0.0
  0
VERTEX
  8
0
 10
699.946148086737
 20
68.672417701491
 42
0.0
  0
SEQEND
  0
POLYLINE
  8
0
 66
     1
 10
0.0
 20
0.0
 30
0.0
 70
     1
  0
VERTEX
  8
0
 10
688.358331102517
 20
172.322523738635
 42
0.0
  0
VERTEX
  8
0
 10
688.423019284978
 20
172.177282074584
 42
0.0
  0
VERTEX
  8
0
 10
688.514754471074
 20
172.047419233254
 42
0.0
  0
VERTEX
  8
0
 10
688.630023798264
 20
171.937908119043
 42
0.0
  0
VERTEX
  8
0
 10
688.764413199072
 20
171.852942297226
 42
0.0
  0
VERTEX
  8
0
 10
688.912776431232
 20
171.795775407602
 42
0.0
  0
VERTEX
  8
0
 10
689.06943214539
 20
171.768596571201
 42
0.0
  0
VERTEX
  8
0
 10
690.096148086732
 20
168.680802103101
 42
0.0
  0
VERTEX
  8
0
 10
691.084241111197
 20
168.680802103101
 42
0.0
  0
VERTEX
  8
0
 10
692.474147822673
 20
168.610109151722
 42
0.0
  0
VERTEX
  8
0
 10
693.849709402531
 20
168.398759914674
 42
0.0
  0
VERTEX
  8
0
 10
695.196728774268
 20
168.048935712905
 42
0.0
  0
VERTEX
  8
0
 10
696.501303443554
 20
167.564247057952
 42
0.0
  0
VERTEX
  8
0
 10
697.74996898491
 20
166.949696388101
 42
0.0
  0
VERTEX
  8
0
 10
698.929838007123
 20
166.211626438568
 42
0.0
  0
VERTEX
  8
0
 10
700.028733163128
 20
165.357654778564
 42
0.0
  0
VERTEX
  8
0
 10
701.035312831564
 20
164.396595190884
 42
0.0
  0
VERTEX
  8
0
 10
701.939188172872
 20
163.338366705463
 42
0.0
  0
VERTEX
  8
0
 10
702.73103035179
 20
162.19389122575
 42
0.0
  0
VERTEX
  8
0
 10
703.402666819633
 20
160.974980804492
 42
0.0
  0
VERTEX
  8
0
 10
703.947165662576
 20
159.694215732353
 42
0.0
  0
VERTEX
  8
0
 10
709.967047553909
 20
120.121958460767
 42
0.0
  0
VERTEX
  8
0
 10
729.511730101588
 20
108.506923334995
 42
0.0
  0
VERTEX
  8
0
 10
729.860132978678
 20
108.243803546405
 42
0.0
  0
VERTEX
  8
0
 10
730.188066976848
 20
107.955574677694
 42
0.0
  0
VERTEX
  8
0
 10
730.493726653258
 20
107.64382357484
 42
0.0
  0
VERTEX
  8
0
 10
730.775429196501
 20
107.31026658564
 42
0.0
  0
VERTEX
  8
0
 10
731.031623691326
 20
106.956740110347
 42
0.0
  0
VERTEX
  8
0
 10
731.26089965722
 20
106.58519049135
 42
0.0
  0
VERTEX
  8
0
 10
731.461994813806
 20
106.19766329758
 42
0.0
  0
VERTEX
  8
0
 10
731.633802030343
 20
105.796292062613
 42
0.0
  0
VERTEX
  8
0
 10
731.775375421046
 20
105.383286538487
 42
0.0
  0
VERTEX
  8
0
 10
731.964873735627
 20
104.531519375751
 42
0.0
  0
VERTEX
  8
0
 10
734.106368210832
 20
89.83492037599
 42
0.0
  0
VERTEX
  8
0
 10
734.048228677031
 20
89.07233999003
 42
0.0
  0
VERTEX
  8
0
 10
733.951504860332
 20
88.313687530914
 42
0.0
  0
VERTEX
  8
0
 10
733.81644549957
 20
87.560913979631
 42
0.0
  0
VERTEX
  8
0
 10
733.643397918798
 20
86.815955198738
 42
0.0
  0
VERTEX
  8
0
 10
733.432807134088
 20
86.080726954016
 42
0.0
  0
VERTEX
  8
0
 10
733.185214709125
 20
85.357119987811
 42
0.0
  0
VERTEX
  8
0
 10
732.901257362483
 20
84.646995156722
 42
0.0
  0
VERTEX
  8
0
 10
732.581665330227
 20
83.952178646153
 42
0.0
  0
VERTEX
  8
0
 10
732.227260488004
 20
83.274457274017
 42
0.0
  0
VERTEX
  8
0
 10
731.417745162512
 20
81.977222921998
 42
0.0
  0
VERTEX
  8
0
 10
722.125502295925
 20
68.642889219169
 42
0.0
  0
VERTEX
  8
0
 10
722.13297254859
 20
43.095576269021
 42
0.0
  0
VERTEX
  8
0
 10
731.846850156503
 20
29.156692727098
 42
0.0
  0
VERTEX
  8
0
 10
732.200749449011
 20
28.676468773937
 42
0.0
  0
VERTEX
  8
0
 10
732.826396565241
 20
27.66112682324
 42
0.0
  0
VERTEX
  8
0
 10
733.096236069322
 20
27.129105774348
 42
0.0
  0
VERTEX
  8
0
 10
733.336292690918
 20
26.582999033082
 42
0.0
  0
VERTEX
  8
0
 10
733.545834220525
 20
26.024472308746
 42
0.0
  0
VERTEX
  8
0
 10
733.724221524344
 20
25.455229193493
 42
0.0
  0
VERTEX
  8
0
 10
733.870910493747
 20
24.877005966111
 42
0.0
  0
VERTEX
  8
0
 10
733.985453704881
 20
24.291566296111
 42
0.0
  0
VERTEX
  8
0
 10
734.067501783389
 20
23.700695864256
 42
0.0
  0
VERTEX
  8
0
 10
734.116804470052
 20
23.106196915968
 42
0.0
  0
VERTEX
  8
0
 10
734.116148086576
 20
5.334014122935
 42
0.0
  0
VERTEX
  8
0
 10
734.087379010134
 20
4.895082836659
 42
0.0
  0
VERTEX
  8
0
 10
734.001564027688
 20
4.463661786385
 42
0.0
  0
VERTEX
  8
0
 10
733.860171457377
 20
4.047132705898
 42
0.0
  0
VERTEX
  8
0
 10
733.66562056528
 20
3.652622523246
 42
0.0
  0
VERTEX
  8
0
 10
733.421240171101
 20
3.286881417034
 42
0.0
  0
VERTEX
  8
0
 10
733.131211691141
 20
2.956167318994
 42
0.0
  0
VERTEX
  8
0
 10
732.8004975931
 20
2.666138839032
 42
0.0
  0
VERTEX
  8
0
 10
732.43475648689
 20
2.421758444852
 42
0.0
  0
VERTEX
  8
0
 10
732.040246304238
 20
2.227207552753
 42
0.0
  0
VERTEX
  8
0
 10
731.62371722375
 20
2.085814982443
 42
0.0
  0
VERTEX
  8
0
 10
731.192296173476
 20
1.999999999996
 42
0.0
  0
VERTEX
  8
0
 10
730.7533648872
 20
1.971230923555
 42
0.0
  0
VERTEX
  8
0
 10
597.438931286276
 20
1.971230923559
 42
0.0
  0
VERTEX
  8
0
 10
597.0
 20
2.0
 42
0.0
  0
VERTEX
  8
0
 10
596.568578949726
 20
2.085814982447
 42
0.0
  0
VERTEX
  8
0
 10
596.152049869238
 20
2.22720755276
 42
0.0
  0
VERTEX
  8
0
 10
595.757539686587
 20
2.421758444857
 42
0.0
  0
VERTEX
  8
0
 10
595.391798580378
 20
2.666138839036
 42
0.0
  0
VERTEX
  8
0
 10
595.061084482338
 20
2.956167318997
 42
0.0
  0
VERTEX
  8
0
 10
594.771056002378
 20
3.286881417037
 42
0.0
  0
VERTEX
  8
0
 10
594.526675608199
 20
3.65262252325
 42
0.0
  0
VERTEX
  8
0
 10
594.332124716101
 20
4.047132705901
 42
0.0
  0
VERTEX
  8
0
 10
594.190732145788
 20
4.463661786389
 42
0.0
  0
VERTEX
  8
0
 10
594.104917163342
 20
4.895082836663
 42
0.0
  0
VERTEX
  8
0
 10
594.076148086902
 20
5.33401412294
 42
0.0
  0
VERTEX
  8
0
 10
594.090851046098
 20
23.106196915968
 42
0.0
  0
VERTEX
  8
0
 10
594.140153732764
 20
23.700695864256
 42
0.0
  0
VERTEX
  8
0
 10
594.222201811271
 20
24.291566296111
 42
0.0
  0
VERTEX
  8
0
 10
594.336745022405
 20
24.877005966111
 42
0.0
  0
VERTEX
  8
0
 10
594.483433991807
 20
25.455229193492
 42
0.0
  0
VERTEX
  8
0
 10
594.661821295626
 20
26.024472308746
 42
0.0
  0
VERTEX
  8
0
 10
594.871362825232
 20
26.582999033082
 42
0.0
  0
VERTEX
  8
0
 10
595.111419446829
 20
27.129105774347
 42
0.0
  0
VERTEX
  8
0
 10
595.381258950909
 20
27.66112682324
 42
0.0
  0
VERTEX
  8
0
 10
596.006906067139
 20
28.676468773936
 42
0.0
  0
VERTEX
  8
0
 10
596.360805359648
 20
29.156692727097
 42
0.0
  0
VERTEX
  8
0
 10
606.074682967561
 20
43.095576269022
 42
0.0
  0
VERTEX
  8
0
 10
606.066361382167
 20
68.64288921917
 42
0.0
  0
VERTEX
  8
0
 10
596.774118515582
 20
81.977222921998
 42
0.0
  0
VERTEX
  8
0
 10
595.964603190088
 20
83.274457274017
 42
0.0
  0
VERTEX
  8
0
 10
595.610198347865
 20
83.952178646153
 42
0.0
  0
VERTEX
  8
0
 10
595.29060631561
 20
84.646995156722
 42
0.0
  0
VERTEX
  8
0
 10
595.006648968968
 20
85.357119987811
 42
0.0
  0
VERTEX
  8
0
 10
594.759056544004
 20
86.080726954016
 42
0.0
  0
VERTEX
  8
0
 10
594.548465759295
 20
86.815955198738
 42
0.0
  0
VERTEX
  8
0
 10
594.375418178521
 20
87.560913979631
 42
0.0
  0
VERTEX
  8
0
 10
594.240358817759
 20
88.313687530914
 42
0.0
  0
VERTEX
  8
0
 10
594.143635001061
 20
89.07233999003
 42
0.0
  0
VERTEX
  8
0
 10
594.085495467259
 20
89.83492037599
 42
0.0
  0
VERTEX
  8
0
 10
594.085366984713
 20
89.980617988775
 42
0.0
  0
VERTEX
  8
0
 10
596.205631334987
 20
104.531519375751
 42
0.0
  0
VERTEX
  8
0
 10
596.395129649567
 20
105.383286538488
 42
0.0
  0
VERTEX
  8
0
 10
596.53670304027
 20
105.796292062613
 42
0.0
  0
VERTEX
  8
0
 10
596.708510256808
 20
106.19766329758
 42
0.0
  0
VERTEX
  8
0
 10
596.909605413393
 20
106.58519049135
 42
0.0
  0
VERTEX
  8
0
 10
597.138881379287
 20
106.956740110347
 42
0.0
  0
VERTEX
  8
0
 10
597.395075874113
 20
107.310266585641
 42
0.0
  0
VERTEX
  8
0
 10
597.676778417356
 20
107.64382357484
 42
0.0
  0
VERTEX
  8
0
 10
597.982438093766
 20
107.955574677694
 42
0.0
  0
VERTEX
  8
0
 10
598.310372091935
 20
108.243803546405
 42
0.0
  0
VERTEX
  8
0
 10
598.658774969026
 20
108.506923334995
 42
0.0
  0
VERTEX
  8
0
 10
618.20363608268
 20
120.121657562822
 42
0.0
  0
VERTEX
  8
0
 10
624.223339408036
 20
159.6584808584
 42
0.0
  0
VERTEX
  8
0
 10
624.245130510887
 20
159.694215732354
 42
0.0
  0
VERTEX
  8
0
 10
624.789629353837
 20
160.974980804492
 42
0.0
  0
VERTEX
  8
0
 10
625.461265821674
 20
162.19389122575
 42
0.0
  0
VERTEX
  8
0
 10
626.253108000594
 20
163.338366705463
 42
0.0
  0
VERTEX
  8
0
 10
627.156983341902
 20
164.396595190884
 42
0.0
  0
VERTEX
  8
0
 10
628.163563010338
 20
165.357654778564
 42
0.0
  0
VERTEX
  8
0
 10
629.262458166343
 20
166.211626438568
 42
0.0
  0
VERTEX
  8
0
 10
630.442327188556
 20
166.9496963881
 42
0.0
  0
VERTEX
  8
0
 10
631.690992729911
 20
167.564247057951
 42
0.0
  0
VERTEX
  8
0
 10
632.995567399196
 20
168.048935712905
 42
0.0
  0
VERTEX
  8
0
 10
634.342586770934
 20
168.398759914674
 42
0.0
  0
VERTEX
  8
0
 10
635.718148350791
 20
168.610109151722
 42
0.0
  0
VERTEX
  8
0
 10
637.108055062267
 20
168.680802103101
 42
0.0
  0
VERTEX
  8
0
 10
638.096148086732
 20
168.680802103101
 42
0.0
  0
VERTEX
  8
0
 10
639.122864028073
 20
171.768596571201
 42
0.0
  0
VERTEX
  8
0
 10
639.279519742232
 20
171.795775407602
 42
0.0
  0
VERTEX
  8
0
 10
639.427882974392
 20
171.852942297226
 42
0.0
  0
VERTEX
  8
0
 10
639.5622723752
 20
171.937908119044
 42
0.0
  0
VERTEX
  8
0
 10
639.677541702392
 20
172.047419233254
 42
0.0
  0
VERTEX
  8
0
 10
639.769276888488
 20
172.177282074585
 42
0.0
  0
VERTEX
  8
0
 10
639.833965070951
 20
172.322523738635
 42
0.0
  0
VERTEX
  8
0
 10
639.869129112027
 20
172.477582411858
 42
0.0
  0
VERTEX
  8
0
 10
639.873422457051
 20
172.636520352939
 42
0.0
  0
VERTEX
  8
0
 10
639.846680698758
 20
172.793251269768
 42
0.0
  0
VERTEX
  8
0
 10
639.789927873022
 20
172.941773384947
 42
0.0
  0
VERTEX
  8
0
 10
639.705337244908
 20
173.076399264932
 42
0.0
  0
VERTEX
  8
0
 10
639.596148086732
 20
173.191973611841
 42
0.0
  0
VERTEX
  8
0
 10
639.648841059056
 20
173.9959130142
 42
0.0
  0
VERTEX
  8
0
 10
639.806018384663
 20
174.78609679049
 42
0.0
  0
VERTEX
  8
0
 10
640.064990715934
 20
175.549004677219
 42
0.0
  0
VERTEX
  8
0
 10
640.42132696448
 20
176.271583108927
 42
0.0
  0
VERTEX
  8
0
 10
640.868930118293
 20
176.941468568312
 42
0.0
  0
VERTEX
  8
0
 10
641.400141563312
 20
177.547199129434
 42
0.0
  0
VERTEX
  8
0
 10
642.005872124435
 20
178.078410574454
 42
0.0
  0
VERTEX
  8
0
 10
642.675757583819
 20
178.526013728267
 42
0.0
  0
VERTEX
  8
0
 10
643.398336015527
 20
178.882349976813
 42
0.0
  0
VERTEX
  8
0
 10
644.161243902256
 20
179.141322308083
 42
0.0
  0
VERTEX
  8
0
 10
644.951427678547
 20
179.29849963369
 42
0.0
  0
VERTEX
  8
0
 10
645.755367080906
 20
179.351192606014
 42
0.0
  0
VERTEX
  8
0
 10
657.596148086732
 20
179.351192606014
 42
0.0
  0
VERTEX
  8
0
 10
660.596148086732
 20
176.504836732207
 42
0.0
  0
VERTEX
  8
0
 10
660.747441374749
 20
176.307667480881
 42
0.0
  0
VERTEX
  8
0
 10
660.84254831204
 20
176.078059024707
 42
0.0
  0
VERTEX
  8
0
 10
660.874987518088
 20
175.831658800319
 42
0.0
  0
VERTEX
  8
0
 10
660.842548314637
 20
175.585258575589
 42
0.0
  0
VERTEX
  8
0
 10
660.747441379765
 20
175.355650118413
 42
0.0
  0
VERTEX
  8
0
 10
660.596148086732
 20
175.158480858399
 42
0.0
  0
VERTEX
  8
0
 10
660.398978844093
 20
175.007187575398
 42
0.0
  0
VERTEX
  8
0
 10
660.169370388921
 20
174.912080635687
 42
0.0
  0
VERTEX
  8
0
 10
659.922970164875
 20
174.879641427044
 42
0.0
  0
VERTEX
  8
0
 10
659.676569939803
 20
174.912080627898
 42
0.0
  0
VERTEX
  8
0
 10
659.446961481625
 20
175.007187560351
 42
0.0
  0
VERTEX
  8
0
 10
659.249792227111
 20
175.158480844213
 42
0.0
  0
VERTEX
  8
0
 10
656.596148086732
 20
175.1584808584
 42
0.0
  0
VERTEX
  8
0
 10
655.560871906322
 20
175.022184163556
 42
0.0
  0
VERTEX
  8
0
 10
654.596148086732
 20
174.622582473538
 42
0.0
  0
VERTEX
  8
0
 10
653.767720961986
 20
173.986907983146
 42
0.0
  0
VERTEX
  8
0
 10
653.132046471594
 20
173.1584808584
 42
0.0
  0
VERTEX
  8
0
 10
652.732444781579
 20
172.19375703881
 42
0.0
  0
VERTEX
  8
0
 10
652.596148086732
 20
171.1584808584
 42
0.0
  0
VERTEX
  8
0
 10
652.732444781576
 20
170.12320467799
 42
0.0
  0
VERTEX
  8
0
 10
653.132046471594
 20
169.1584808584
 42
0.0
  0
VERTEX
  8
0
 10
653.767720961986
 20
168.330053733654
 42
0.0
  0
VERTEX
  8
0
 10
654.596148086732
 20
167.694379243262
 42
0.0
  0
VERTEX
  8
0
 10
655.560871906322
 20
167.294777553244
 42
0.0
  0
VERTEX
  8
0
 10
656.596148086732
 20
167.1584808584
 42
0.0
  0
VERTEX
  8
0
 10
671.596148086732
 20
167.1584808584
 42
0.0
  0
VERTEX
  8
0
 10
672.631424267142
 20
167.294777553243
 42
0.0
  0
VERTEX
  8
0
 10
673.596148086732
 20
167.694379243262
 42
0.0
  0
VERTEX
  8
0
 10
674.424575211478
 20
168.330053733654
 42
0.0
  0
VERTEX
  8
0
 10
675.06024970187
 20
169.1584808584
 42
0.0
  0
VERTEX
  8
0
 10
675.459851391888
 20
170.12320467799
 42
0.0
  0
VERTEX
  8
0
 10
675.596148086732
 20
171.1584808584
 42
0.0
  0
VERTEX
  8
0
 10
675.459851391889
 20
172.19375703881
 42
0.0
  0
VERTEX
  8
0
 10
675.06024970187
 20
173.1584808584
 42
0.0
  0
VERTEX
  8
0
 10
674.424575211478
 20
173.986907983146
 42
0.0
  0
VERTEX
  8
0
 10
673.596148086732
 20
174.622582473538
 42
0.0
  0
VERTEX
  8
0
 10
672.631424267142
 20
175.022184163556
 42
0.0
  0
VERTEX
  8
0
 10
671.596148086732
 20
175.1584808584
 42
0.0
  0
VERTEX
  8
0
 10
668.942503946353
 20
175.158480844214
 42
0.0
  0
VERTEX
  8
0
 10
668.745334691839
 20
175.007187560351
 42
0.0
  0
VERTEX
  8
0
 10
668.515726233661
 20
174.912080627899
 42
0.0
  0
VERTEX
  8
0
 10
668.269326008589
 20
174.879641427044
 42
0.0
  0
VERTEX
  8
0
 10
668.022925784542
 20
174.912080635688
 42
0.0
  0
VERTEX
  8
0
 10
667.793317329371
 20
175.007187575398
 42
0.0
  0
VERTEX
  8
0
 10
667.596148086732
 20
175.1584808584
 42
0.0
  0
VERTEX
  8
0
 10
667.444854793699
 20
175.355650118413
 42
0.0
  0
VERTEX
  8
0
 10
667.349747858827
 20
175.585258575589
 42
0.0
  0
VERTEX
  8
0
 10
667.317308655376
 20
175.831658800319
 42
0.0
  0
VERTEX
  8
0
 10
667.349747861423
 20
176.078059024707
 42
0.0
  0
VERTEX
  8
0
 10
667.444854798715
 20
176.307667480881
 42
0.0
  0
VERTEX
  8
0
 10
667.596148086732
 20
176.504836732207
 42
0.0
  0
VERTEX
  8
0
 10
670.596148086732
 20
179.351192606014
 42
0.0
  0
VERTEX
  8
0
 10
682.436929092558
 20
179.351192606014
 42
0.0
  0
VERTEX
  8
0
 10
683.240868494917
 20
179.29849963369
 42
0.0
  0
VERTEX
  8
0
 10
684.031052271207
 20
179.141322308083
 42
0.0
  0
VERTEX
  8
0
 10
684.793960157936
 20
178.882349976812
 42
0.0
  0
VERTEX
  8
0
 10
685.516538589645
 20
178.526013728267
 42
0.0
  0
VERTEX
  8
0
 10
686.186424049029
 20
178.078410574453
 42
0.0
  0
VERTEX
  8
0
 10
686.792154610151
 20
177.547199129434
 42
0.0
  0
VERTEX
  8
0
 10
687.323366055171
 20
176.941468568311
 42
0.0
  0
VERTEX
  8
0
 10
687.770969208984
 20
176.271583108927
 42
0.0
  0
VERTEX
  8
0
 10
688.12730545753
 20
175.549004677219
 42
0.0
  0
VERTEX
  8
0
 10
688.386277788801
 20
174.78609679049
 42
0.0
  0
VERTEX
  8
0
 10
688.543455114408
 20
173.995913014199
 42
0.0
  0
VERTEX
  8
0
 10
688.596148086732
 20
173.19197361184
 42
0.0
  0
VERTEX
  8
0
 10
688.486958928557
 20
173.076399264932
 42
0.0
  0
VERTEX
  8
0
 10
688.402368300443
 20
172.941773384947
 42
0.0
  0
VERTEX
  8
0
 10
688.345615474706
 20
172.793251269768
 42
0.0
  0
VERTEX
  8
0
 10
688.318873716418
 20
172.636520352939
 42
0.0
  0
VERTEX
  8
0
 10
688.323167061442
 20
172.477582411858
 42
0.0
  0
SEQEND
  0
POLYLINE
  8
0
 66
     1
 10
0.0
 20
0.0
 30
0.0
 70
     1
  0
VERTEX
  8
0
 10
631.50295732001
 20
97.4149812435333
 42
0.0
  0
VERTEX
  8
0
 10
630.900004932466
 20
97.1652301871463
 42
0.0
  0
VERTEX
  8
0
 10
630.382237979239
 20
96.7679336304483
 42
0.0
  0
VERTEX
  8
0
 10
629.984941422546
 20
96.2501666772243
 42
0.0
  0
VERTEX
  8
0
 10
629.735190366157
 20
95.6472142896753
 42
0.0
  0
VERTEX
  8
0
 10
629.650004931837
 20
95.0001666765933
 42
0.0
  0
VERTEX
  8
0
 10
629.735190366156
 20
94.3531190635103
 42
0.0
  0
VERTEX
  8
0
 10
629.984941422544
 20
93.7501666759643
 42
0.0
  0
VERTEX
  8
0
 10
630.382237979241
 20
93.2323997227333
 42
0.0
  0
VERTEX
  8
0
 10
630.900004932468
 20
92.8351031660413
 42
0.0
  0
VERTEX
  8
0
 10
631.502957320015
 20
92.5853521096543
 42
0.0
  0
VERTEX
  8
0
 10
632.150004933095
 20
92.5001666753343
 42
0.0
  0
VERTEX
  8
0
 10
632.79705254618
 20
92.5853521096543
 42
0.0
  0
VERTEX
  8
0
 10
633.400004933727
 20
92.8351031660413
 42
0.0
  0
VERTEX
  8
0
 10
633.917771886956
 20
93.2323997227373
 42
0.0
  0
VERTEX
  8
0
 10
634.315068443649
 20
93.7501666759623
 42
0.0
  0
VERTEX
  8
0
 10
634.564819500035
 20
94.3531190635103
 42
0.0
  0
VERTEX
  8
0
 10
634.650004934356
 20
95.0001666765933
 42
0.0
  0
VERTEX
  8
0
 10
634.564819500036
 20
95.6472142896753
 42
0.0
  0
VERTEX
  8
0
 10
634.31506844365
 20
96.2501666772223
 42
0.0
  0
VERTEX
  8
0
 10
633.917771886954
 20
96.7679336304513
 42
0.0
  0
VERTEX
  8
0
 10
633.400004933726
 20
97.1652301871463
 42
0.0
  0
VERTEX
  8
0
 10
632.797052546175
 20
97.4149812435343
 42
0.0
  0
VERTEX
  8
0
 10
632.150004933092
 20
97.5001666778543
 42
0.0
  0
SEQEND
  0
POLYLINE
  8
0
 66
     1
 10
0.0
 20
0.0
 30
0.0
 70
     1
  0
VERTEX
  8
0
 10
644.316430588588
 20
173.078584042095
 42
0.0
  0
VERTEX
  8
0
 10
644.878815790514
 20
173.510117385173
 42
0.0
  0
VERTEX
  8
0
 10
645.533727229163
 20
173.781390585214
 42
0.0
  0
VERTEX
  8
0
 10
646.236533772283
 20
173.873916821937
 42
0.0
  0
VERTEX
  8
0
 10
646.939340315402
 20
173.781390585214
 42
0.0
  0
VERTEX
  8
0
 10
647.594251754051
 20
173.510117385173
 42
0.0
  0
VERTEX
  8
0
 10
648.156636955978
 20
173.078584042094
 42
0.0
  0
VERTEX
  8
0
 10
648.588170299058
 20
172.516198840168
 42
0.0
  0
VERTEX
  8
0
 10
648.859443499097
 20
171.861287401519
 42
0.0
  0
VERTEX
  8
0
 10
648.951969735819
 20
171.1584808584
 42
0.0
  0
VERTEX
  8
0
 10
648.859443499097
 20
170.45567431528
 42
0.0
  0
VERTEX
  8
0
 10
648.588170299055
 20
169.800762876631
 42
0.0
  0
VERTEX
  8
0
 10
648.156636955977
 20
169.238377674705
 42
0.0
  0
VERTEX
  8
0
 10
647.594251754051
 20
168.806844331627
 42
0.0
  0
VERTEX
  8
0
 10
646.939340315401
 20
168.535571131585
 42
0.0
  0
VERTEX
  8
0
 10
646.236533772282
 20
168.443044894862
 42
0.0
  0
VERTEX
  8
0
 10
645.533727229162
 20
168.535571131585
 42
0.0
  0
VERTEX
  8
0
 10
644.878815790513
 20
168.806844331627
 42
0.0
  0
VERTEX
  8
0
 10
644.316430588587
 20
169.238377674705
 42
0.0
  0
VERTEX
  8
0
 10
643.884897245509
 20
169.800762876631
 42
0.0
  0
VERTEX
  8
0
 10
643.613624045467
 20
170.45567431528
 42
0.0
  0
VERTEX
  8
0
 10
643.521097808745
 20
171.1584808584
 42
0.0
  0
VERTEX
  8
0
 10
643.613624045468
 20
171.861287401519
 42
0.0
  0
VERTEX
  8
0
 10
643.884897245512
 20
172.516198840168
 42
0.0
  0
SEQEND
  0
POLYLINE
  8
0
 66
     1
 10
0.0
 20
0.0
 30
0.0
 70
     1
  0
VERTEX
  8
0
 10
690.181533298667
 20
150.7637506924
 42
0.0
  0
VERTEX
  8
0
 10
690.268070860181
 20
151.421151680685
 42
0.0
  0
VERTEX
  8
0
 10
690.26807086018
 20
160.421127901375
 42
0.0
  0
VERTEX
  8
0
 10
690.18153329867
 20
161.07852888966
 42
0.0
  0
VERTEX
  8
0
 10
689.927787997958
 20
161.691124401423
 42
0.0
  0
VERTEX
  8
0
 10
689.524132310383
 20
162.217182351673
 42
0.0
  0
VERTEX
  8
0
 10
688.998074360133
 20
162.620812639318
 42
0.0
  0
VERTEX
  8
0
 10
688.38547884837
 20
162.874583339958
 42
0.0
  0
VERTEX
  8
0
 10
687.728077860085
 20
162.961120901471
 42
0.0
  0
VERTEX
  8
0
 10
687.0706768718
 20
162.874583339958
 42
0.0
  0
VERTEX
  8
0
 10
686.458081360037
 20
162.620812639318
 42
0.0
  0
VERTEX
  8
0
 10
685.932048809717
 20
162.217182351673
 42
0.0
  0
VERTEX
  8
0
 10
685.528393122141
 20
161.691124401423
 42
0.0
  0
VERTEX
  8
0
 10
685.274647821434
 20
161.07852888966
 42
0.0
  0
VERTEX
  8
0
 10
685.188084859987
 20
160.421127901375
 42
0.0
  0
VERTEX
  8
0
 10
685.188084859988
 20
151.421151680685
 42
0.0
  0
VERTEX
  8
0
 10
685.27464782143
 20
150.763750692401
 42
0.0
  0
VERTEX
  8
0
 10
685.528393122141
 20
150.151155180637
 42
0.0
  0
VERTEX
  8
0
 10
685.932048809718
 20
149.625097230387
 42
0.0
  0
VERTEX
  8
0
 10
686.458081360036
 20
149.221441542812
 42
0.0
  0
VERTEX
  8
0
 10
687.070676871799
 20
148.967696242102
 42
0.0
  0
VERTEX
  8
0
 10
687.728077860084
 20
148.881158680589
 42
0.0
  0
VERTEX
  8
0
 10
688.385478848369
 20
148.967696242102
 42
0.0
  0
VERTEX
  8
0
 10
688.998074360132
 20
149.221441542812
 42
0.0
  0
VERTEX
  8
0
 10
689.524132310385
 20
149.625097230387
 42
0.0
  0
VERTEX
  8
0
 10
689.927787997958
 20
150.151155180637
 42
0.0
  0
SEQEND
  0
CIRCLE
  8
0
 10
632.150004933096
 20
95.0001666765933
 30
0.0
 40
2.500000001261
  0
CIRCLE
  8
0
 10
695.99625493274
 20
95.0001666765903
 30
0.0
 40
2.4748873344895
  0
ENDSEC
  0
EOF
